  0
SECTION
  2
HEADER
  9
$ACADVER
  1
AC1015
  9
$ACADMAINTVER
 70
     6
  9
$DWGCODEPAGE
  3
ANSI_1252
  9
$INSBASE
 10
0.0
 20
0.0
 30
0.0
  9
$EXTMIN
 10
710.607325310563
 20
1389.81648236148
 30
0.0
  9
$EXTMAX
 10
851.929861264672
 20
1485.52347011679
 30
0.0
  9
$LIMMIN
 10
0.0
 20
0.0
  9
$LIMMAX
 10
12.0
 20
9.0
  9
$ORTHOMODE
 70
     0
  9
$REGENMODE
 70
     1
  9
$FILLMODE
 70
     1
  9
$QTEXTMODE
 70
     0
  9
$MIRRTEXT
 70
     1
  9
$LTSCALE
 40
1.0
  9
$ATTMODE
 70
     1
  9
$TEXTSIZE
 40
0.2
  9
$TRACEWID
 40
0.05
  9
$TEXTSTYLE
  7
Standard
  9
$CLAYER
  8
0
  9
$CELTYPE
  6
ByLayer
  9
$CECOLOR
 62
   256
  9
$CELTSCALE
 40
1.0
  9
$DISPSILH
 70
     0
  9
$DIMSCALE
 40
1.0
  9
$DIMASZ
 40
0.18
  9
$DIMEXO
 40
0.0625
  9
$DIMDLI
 40
0.38
  9
$DIMRND
 40
0.0
  9
$DIMDLE
 40
0.0
  9
$DIMEXE
 40
0.18
  9
$DIMTP
 40
0.0
  9
$DIMTM
 40
0.0
  9
$DIMTXT
 40
0.18
  9
$DIMCEN
 40
0.09
  9
$DIMTSZ
 40
0.0
  9
$DIMTOL
 70
     0
  9
$DIMLIM
 70
     0
  9
$DIMTIH
 70
     1
  9
$DIMTOH
 70
     1
  9
$DIMSE1
 70
     0
  9
$DIMSE2
 70
     0
  9
$DIMTAD
 70
     0
  9
$DIMZIN
 70
     0
  9
$DIMBLK
  1

  9
$DIMASO
 70
     1
  9
$DIMSHO
 70
     1
  9
$DIMPOST
  1

  9
$DIMAPOST
  1

  9
$DIMALT
 70
     0
  9
$DIMALTD
 70
     2
  9
$DIMALTF
 40
25.4
  9
$DIMLFAC
 40
1.0
  9
$DIMTOFL
 70
     0
  9
$DIMTVP
 40
0.0
  9
$DIMTIX
 70
     0
  9
$DIMSOXD
 70
     0
  9
$DIMSAH
 70
     0
  9
$DIMBLK1
  1

  9
$DIMBLK2
  1

  9
$DIMSTYLE
  2
Standard
  9
$DIMCLRD
 70
     0
  9
$DIMCLRE
 70
     0
  9
$DIMCLRT
 70
     0
  9
$DIMTFAC
 40
1.0
  9
$DIMGAP
 40
0.09
  9
$DIMJUST
 70
     0
  9
$DIMSD1
 70
     0
  9
$DIMSD2
 70
     0
  9
$DIMTOLJ
 70
     1
  9
$DIMTZIN
 70
     0
  9
$DIMALTZ
 70
     0
  9
$DIMALTTZ
 70
     0
  9
$DIMUPT
 70
     0
  9
$DIMDEC
 70
     4
  9
$DIMTDEC
 70
     4
  9
$DIMALTU
 70
     2
  9
$DIMALTTD
 70
     2
  9
$DIMTXSTY
  7
Standard
  9
$DIMAUNIT
 70
     0
  9
$DIMADEC
 70
     0
  9
$DIMALTRND
 40
0.0
  9
$DIMAZIN
 70
     0
  9
$DIMDSEP
 70
    46
  9
$DIMATFIT
 70
     3
  9
$DIMFRAC
 70
     0
  9
$DIMLDRBLK
  1

  9
$DIMLUNIT
 70
     2
  9
$DIMLWD
 70
    -2
  9
$DIMLWE
 70
    -2
  9
$DIMTMOVE
 70
     0
  9
$LUNITS
 70
     2
  9
$LUPREC
 70
     4
  9
$SKETCHINC
 40
0.1
  9
$FILLETRAD
 40
0.5
  9
$AUNITS
 70
     0
  9
$AUPREC
 70
     0
  9
$MENU
  1
.
  9
$ELEVATION
 40
0.0
  9
$PELEVATION
 40
0.0
  9
$THICKNESS
 40
0.0
  9
$LIMCHECK
 70
     0
  9
$CHAMFERA
 40
0.5
  9
$CHAMFERB
 40
0.5
  9
$CHAMFERC
 40
1.0
  9
$CHAMFERD
 40
0.0
  9
$SKPOLY
 70
     0
  9
$TDCREATE
 40
2455252.594257257
  9
$TDUCREATE
 40
2455252.55259059
  9
$TDUPDATE
 40
2455252.594257269
  9
$TDUUPDATE
 40
2455252.552590602
  9
$TDINDWG
 40
0.0000000116
  9
$TDUSRTIMER
 40
0.0000000116
  9
$USRTIMER
 70
     1
  9
$ANGBASE
 50
0.0
  9
$ANGDIR
 70
     0
  9
$PDMODE
 70
     0
  9
$PDSIZE
 40
0.0
  9
$PLINEWID
 40
0.0
  9
$SPLFRAME
 70
     0
  9
$SPLINETYPE
 70
     6
  9
$SPLINESEGS
 70
     8
  9
$HANDSEED
  5
2AD
  9
$SURFTAB1
 70
     6
  9
$SURFTAB2
 70
     6
  9
$SURFTYPE
 70
     6
  9
$SURFU
 70
     6
  9
$SURFV
 70
     6
  9
$UCSBASE
  2

  9
$UCSNAME
  2

  9
$UCSORG
 10
0.0
 20
0.0
 30
0.0
  9
$UCSXDIR
 10
1.0
 20
0.0
 30
0.0
  9
$UCSYDIR
 10
0.0
 20
1.0
 30
0.0
  9
$UCSORTHOREF
  2

  9
$UCSORTHOVIEW
 70
     0
  9
$UCSORGTOP
 10
0.0
 20
0.0
 30
0.0
  9
$UCSORGBOTTOM
 10
0.0
 20
0.0
 30
0.0
  9
$UCSORGLEFT
 10
0.0
 20
0.0
 30
0.0
  9
$UCSORGRIGHT
 10
0.0
 20
0.0
 30
0.0
  9
$UCSORGFRONT
 10
0.0
 20
0.0
 30
0.0
  9
$UCSORGBACK
 10
0.0
 20
0.0
 30
0.0
  9
$PUCSBASE
  2

  9
$PUCSNAME
  2

  9
$PUCSORG
 10
0.0
 20
0.0
 30
0.0
  9
$PUCSXDIR
 10
1.0
 20
0.0
 30
0.0
  9
$PUCSYDIR
 10
0.0
 20
1.0
 30
0.0
  9
$PUCSORTHOREF
  2

  9
$PUCSORTHOVIEW
 70
     0
  9
$PUCSORGTOP
 10
0.0
 20
0.0
 30
0.0
  9
$PUCSORGBOTTOM
 10
0.0
 20
0.0
 30
0.0
  9
$PUCSORGLEFT
 10
0.0
 20
0.0
 30
0.0
  9
$PUCSORGRIGHT
 10
0.0
 20
0.0
 30
0.0
  9
$PUCSORGFRONT
 10
0.0
 20
0.0
 30
0.0
  9
$PUCSORGBACK
 10
0.0
 20
0.0
 30
0.0
  9
$USERI1
 70
     0
  9
$USERI2
 70
     0
  9
$USERI3
 70
     0
  9
$USERI4
 70
     0
  9
$USERI5
 70
     0
  9
$USERR1
 40
15.5
  9
$USERR2
 40
0.0
  9
$USERR3
 40
0.0
  9
$USERR4
 40
0.0
  9
$USERR5
 40
0.0
  9
$WORLDVIEW
 70
     1
  9
$SHADEDGE
 70
     3
  9
$SHADEDIF
 70
    70
  9
$TILEMODE
 70
     1
  9
$MAXACTVP
 70
    64
  9
$PINSBASE
 10
0.0
 20
0.0
 30
0.0
  9
$PLIMCHECK
 70
     0
  9
$PEXTMIN
 10
1.00000000000000E+20
 20
1.00000000000000E+20
 30
1.00000000000000E+20
  9
$PEXTMAX
 10
-1.00000000000000E+20
 20
-1.00000000000000E+20
 30
-1.00000000000000E+20
  9
$PLIMMIN
 10
0.0
 20
0.0
  9
$PLIMMAX
 10
12.0
 20
9.0
  9
$UNITMODE
 70
     0
  9
$VISRETAIN
 70
     1
  9
$PLINEGEN
 70
     0
  9
$PSLTSCALE
 70
     1
  9
$TREEDEPTH
 70
  3020
  9
$CMLSTYLE
  2
Standard
  9
$CMLJUST
 70
     0
  9
$CMLSCALE
 40
1.0
  9
$PROXYGRAPHICS
 70
     1
  9
$MEASUREMENT
 70
     1
  9
$CELWEIGHT
370
    -1
  9
$ENDCAPS
280
     0
  9
$JOINSTYLE
280
     0
  9
$LWDISPLAY
290
     0
  9
$INSUNITS
 70
     1
  9
$HYPERLINKBASE
  1

  9
$STYLESHEET
  1

  9
$XEDIT
290
     1
  9
$CEPSNTYPE
380
     0
  9
$PSTYLEMODE
290
     1
  9
$FINGERPRINTGUID
  2
{293D6048-5207-40C0-BBC9-076025B16855}
  9
$VERSIONGUID
  2
{FAEB1C32-E019-11D5-929B-00C0DF256EC4}
  9
$EXTNAMES
290
     1
  9
$PSVPSCALE
 40
0.0
  9
$OLESTARTUP
290
     0
  0
ENDSEC
  0
SECTION
  2
CLASSES
  0
CLASS
  1
ACDBDICTIONARYWDFLT
  2
AcDbDictionaryWithDefault
  3
ObjectDBX Classes
 90
        0
280
     0
281
     0
  0
CLASS
  1
VISUALSTYLE
  2
AcDbVisualStyle
  3
ObjectDBX Classes
 90
     4095
280
     0
281
     0
  0
CLASS
  1

  2
exOdDbCircle
  3

 90
        0
280
     0
281
     1
  0
CLASS
  1

  2
exOdDbSpline
  3

 90
        0
280
     0
281
     1
  0
CLASS
  1
ACDBPLACEHOLDER
  2
AcDbPlaceHolder
  3
ObjectDBX Classes
 90
        0
280
     0
281
     0
  0
CLASS
  1
LAYOUT
  2
AcDbLayout
  3
ObjectDBX Classes
 90
        0
280
     0
281
     0
  0
ENDSEC
  0
SECTION
  2
TABLES
  0
TABLE
  2
VPORT
  5
8
330
0
100
AcDbSymbolTable
 70
     1
  0
VPORT
  5
29
330
8
100
AcDbSymbolTableRecord
100
AcDbViewportTableRecord
  2
*Active
 70
     0
 10
0.0
 20
0.0
 11
1.0
 21
1.0
 12
781.2685932876175
 22
1437.669976239135
 13
0.0
 23
0.0
 14
0.5
 24
0.5
 15
0.5
 25
0.5
 16
0.0
 26
0.0
 36
1.0
 17
0.0
 27
0.0
 37
0.0
 40
105.2776865308409
 41
1.60267857142857
 42
50.0
 43
0.0
 44
0.0
 50
0.0
 51
0.0
 71
     0
 72
   100
 73
     1
 74
     3
 75
     0
 76
     0
 77
     0
 78
     0
281
     0
 65
     1
110
0.0
120
0.0
130
0.0
111
1.0
121
0.0
131
0.0
112
0.0
122
1.0
132
0.0
 79
     0
146
0.0
  0
ENDTAB
  0
TABLE
  2
LTYPE
  5
5
330
0
100
AcDbSymbolTable
 70
     8
  0
LTYPE
  5
14
330
5
100
AcDbSymbolTableRecord
100
AcDbLinetypeTableRecord
  2
ByBlock
 70
     0
  3

 72
    65
 73
     0
 40
0.0
  0
LTYPE
  5
15
330
5
100
AcDbSymbolTableRecord
100
AcDbLinetypeTableRecord
  2
ByLayer
 70
     0
  3

 72
    65
 73
     0
 40
0.0
  0
LTYPE
  5
16
330
5
100
AcDbSymbolTableRecord
100
AcDbLinetypeTableRecord
  2
Continuous
 70
     0
  3
Solid line
 72
    65
 73
     0
 40
0.0
  0
LTYPE
  5
3B
330
5
100
AcDbSymbolTableRecord
100
AcDbLinetypeTableRecord
  2
DASHED
 70
     0
  3
Dashed
 72
    65
 73
     2
 40
15.0
 49
7.0
 74
     0
 49
-8.0
 74
     0
  0
LTYPE
  5
3C
330
5
100
AcDbSymbolTableRecord
100
AcDbLinetypeTableRecord
  2
DOTTED
 70
     0
  3
Dotted
 72
    65
 73
     2
 40
1.0
 49
0.0
 74
     0
 49
-1.0
 74
     0
  0
LTYPE
  5
3D
330
5
100
AcDbSymbolTableRecord
100
AcDbLinetypeTableRecord
  2
DOT_CENTER
 70
     0
  3
Dot_Center
 72
    65
 73
     4
 40
14.0
 49
12.0
 74
     0
 49
-1.0
 74
     0
 49
0.0
 74
     0
 49
-1.0
 74
     0
  0
LTYPE
  5
3E
330
5
100
AcDbSymbolTableRecord
100
AcDbLinetypeTableRecord
  2
LONG_DASHED
 70
     0
  3
Long_Dashed
 72
    65
 73
     2
 40
15.0
 49
10.0
 74
     0
 49
-5.0
 74
     0
  0
LTYPE
  5
3F
330
5
100
AcDbSymbolTableRecord
100
AcDbLinetypeTableRecord
  2
DASH_CENTER
 70
     0
  3
Dash_Center
 72
    65
 73
     4
 40
14.0
 49
11.0
 74
     0
 49
-1.0
 74
     0
 49
1.0
 74
     0
 49
-1.0
 74
     0
  0
LTYPE
  5
40
330
5
100
AcDbSymbolTableRecord
100
AcDbLinetypeTableRecord
  2
PHANTOM
 70
     0
  3
Phantom
 72
    65
 73
     6
 40
13.0
 49
10.0
 74
     0
 49
-1.0
 74
     0
 49
0.0
 74
     0
 49
-1.0
 74
     0
 49
0.0
 74
     0
 49
-1.0
 74
     0
  0
LTYPE
  5
41
330
5
100
AcDbSymbolTableRecord
100
AcDbLinetypeTableRecord
  2
CENTER_DASH_DASH
 70
     0
  3
Center_Dash_Dash
 72
    65
 73
     6
 40
14.0
 49
9.0
 74
     0
 49
-1.0
 74
     0
 49
1.0
 74
     0
 49
-1.0
 74
     0
 49
1.0
 74
     0
 49
-1.0
 74
     0
  0
ENDTAB
  0
TABLE
  2
LAYER
  5
2
330
0
100
AcDbSymbolTable
 70
     2
  0
LAYER
  5
10
330
2
100
AcDbSymbolTableRecord
100
AcDbLayerTableRecord
  2
0
 70
     0
 62
     7
  6
Continuous
370
    -3
390
F
  0
LAYER
  5
42
330
2
100
AcDbSymbolTableRecord
100
AcDbLayerTableRecord
  2
1
 70
     0
 62
     7
  6
Continuous
370
    -3
390
F
  0
ENDTAB
  0
TABLE
  2
STYLE
  5
3
330
0
100
AcDbSymbolTable
 70
     1
  0
STYLE
  5
11
330
3
100
AcDbSymbolTableRecord
100
AcDbTextStyleTableRecord
  2
Standard
 70
     0
 40
0.0
 41
1.0
 50
0.0
 71
     0
 42
0.2
  3
txt
  4

  0
ENDTAB
  0
TABLE
  2
VIEW
  5
6
330
0
100
AcDbSymbolTable
 70
     0
  0
ENDTAB
  0
TABLE
  2
UCS
  5
7
330
0
100
AcDbSymbolTable
 70
     0
  0
ENDTAB
  0
TABLE
  2
APPID
  5
9
330
0
100
AcDbSymbolTable
 70
     1
  0
APPID
  5
12
330
9
100
AcDbSymbolTableRecord
100
AcDbRegAppTableRecord
  2
ACAD
 70
     0
  0
ENDTAB
  0
TABLE
  2
DIMSTYLE
  5
A
330
0
100
AcDbSymbolTable
 70
     1
100
AcDbDimStyleTable
  0
DIMSTYLE
105
27
330
A
100
AcDbSymbolTableRecord
100
AcDbDimStyleTableRecord
  2
Standard
 70
     0
340
11
  0
ENDTAB
  0
TABLE
  2
BLOCK_RECORD
  5
1
330
0
100
AcDbSymbolTable
 70
    13
  0
BLOCK_RECORD
  5
1F
330
1
100
AcDbSymbolTableRecord
100
AcDbBlockTableRecord
  2
*Model_Space
340
22
  0
BLOCK_RECORD
  5
1B
330
1
100
AcDbSymbolTableRecord
100
AcDbBlockTableRecord
  2
*Paper_Space
340
1E
  0
BLOCK_RECORD
  5
23
330
1
100
AcDbSymbolTableRecord
100
AcDbBlockTableRecord
  2
*Paper_Space0
340
26
  0
BLOCK_RECORD
  5
43
330
1
100
AcDbSymbolTableRecord
100
AcDbBlockTableRecord
  2
10954_Einsatz_GV__1
340
0
102
{BLKREFS
331
4A
102
}
  0
BLOCK_RECORD
  5
46
330
1
100
AcDbSymbolTableRecord
100
AcDbBlockTableRecord
  2
10994_Deckel_GV__2
340
0
102
{BLKREFS
331
4B
102
}
  0
BLOCK_RECORD
  5
49
330
1
100
AcDbSymbolTableRecord
100
AcDbBlockTableRecord
  2
Bgr_Geruchsverschluss_0138_3E__3
340
0
102
{BLKREFS
331
4F
102
}
  0
BLOCK_RECORD
  5
4E
330
1
100
AcDbSymbolTableRecord
100
AcDbBlockTableRecord
  2
Vordans1
340
0
102
{BLKREFS
331
6E
102
}
  0
BLOCK_RECORD
  5
52
330
1
100
AcDbSymbolTableRecord
100
AcDbBlockTableRecord
  2
11054_Steckdichtung-GV_1
340
0
102
{BLKREFS
331
59
102
}
  0
BLOCK_RECORD
  5
55
330
1
100
AcDbSymbolTableRecord
100
AcDbBlockTableRecord
  2
11054_Steckdichtung-GV
340
0
102
{BLKREFS
331
5A
102
}
  0
BLOCK_RECORD
  5
58
330
1
100
AcDbSymbolTableRecord
100
AcDbBlockTableRecord
  2
Bgr_01097D
340
0
102
{BLKREFS
331
64
102
}
  0
BLOCK_RECORD
  5
5D
330
1
100
AcDbSymbolTableRecord
100
AcDbBlockTableRecord
  2
10954_Einsatz_GV__4
340
0
102
{BLKREFS
331
65
102
}
  0
BLOCK_RECORD
  5
60
330
1
100
AcDbSymbolTableRecord
100
AcDbBlockTableRecord
  2
10994_Deckel_GV__5
340
0
102
{BLKREFS
331
66
102
}
  0
BLOCK_RECORD
  5
63
330
1
100
AcDbSymbolTableRecord
100
AcDbBlockTableRecord
  2
Bgr_Geruchsverschluss_0138_3E__6
340
0
102
{BLKREFS
331
6A
102
}
  0
BLOCK_RECORD
  5
69
330
1
100
AcDbSymbolTableRecord
100
AcDbBlockTableRecord
  2
SA_links1
340
0
102
{BLKREFS
331
6F
102
}
  0
BLOCK_RECORD
  5
6D
330
1
100
AcDbSymbolTableRecord
100
AcDbBlockTableRecord
  2
1
340
0
102
{BLKREFS
331
72
102
}
  0
ENDTAB
  0
ENDSEC
  0
SECTION
  2
BLOCKS
  0
BLOCK
  5
20
330
1F
100
AcDbEntity
  8
0
100
AcDbBlockBegin
  2
*Model_Space
 70
     0
 71
     0
 10
0.0
 20
0.0
 30
0.0
  3
*Model_Space
  1

  0
ENDBLK
  5
21
330
1F
100
AcDbEntity
  8
0
100
AcDbBlockEnd
  0
BLOCK
  5
1C
330
1B
100
AcDbEntity
 67
     1
  8
0
100
AcDbBlockBegin
  2
*Paper_Space
 70
     0
 71
     0
 10
0.0
 20
0.0
 30
0.0
  3
*Paper_Space
  1

  0
ENDBLK
  5
1D
330
1B
100
AcDbEntity
 67
     1
  8
0
100
AcDbBlockEnd
  0
BLOCK
  5
24
330
23
100
AcDbEntity
  8
0
100
AcDbBlockBegin
  2
*Paper_Space0
 70
     0
 71
     0
 10
0.0
 20
0.0
 30
0.0
  3
*Paper_Space0
  1

  0
ENDBLK
  5
25
330
23
100
AcDbEntity
  8
0
100
AcDbBlockEnd
  0
BLOCK
  5
44
330
43
100
AcDbEntity
  8
0
100
AcDbBlockBegin
  2
10954_Einsatz_GV__1
 70
     0
 71
     0
 10
713.0000000044463
 20
1392.500000334842
 30
0.0
  3
10954_Einsatz_GV__1
  1

  0
LINE
  5
73
330
43
100
AcDbEntity
  8
0
  6
Continuous
 62
     3
100
AcDbLine
 10
794.5000000044463
 20
1406.500000334842
 30
0.0
 11
794.5500000044462
 21
1406.500000334842
 31
0.0
  0
LINE
  5
74
330
43
100
AcDbEntity
  8
0
  6
Continuous
 62
     7
100
AcDbLine
 10
795.0000000044463
 20
1469.500000334842
 30
0.0
 11
795.0000000044463
 21
1406.500000334842
 31
0.0
  0
LINE
  5
75
330
43
100
AcDbEntity
  8
0
  6
Continuous
 62
     7
100
AcDbLine
 10
781.0000000044463
 20
1483.500000334842
 30
0.0
 11
727.0000000044463
 21
1483.500000334842
 31
0.0
  0
LINE
  5
76
330
43
100
AcDbEntity
  8
0
  6
Continuous
 62
     3
100
AcDbLine
 10
727.0000000044463
 20
1483.000000334842
 30
0.0
 11
727.0000000044463
 21
1483.050000334843
 31
0.0
  0
LINE
  5
77
330
43
100
AcDbEntity
  8
0
  6
Continuous
 62
     7
100
AcDbLine
 10
713.0000000044463
 20
1406.500000334842
 30
0.0
 11
713.0000000044463
 21
1469.500000334842
 31
0.0
  0
LINE
  5
78
330
43
100
AcDbEntity
  8
0
  6
Continuous
 62
     3
100
AcDbLine
 10
713.5000000044463
 20
1469.500000334842
 30
0.0
 11
713.4500000044462
 21
1469.500000334842
 31
0.0
  0
LINE
  5
79
330
43
100
AcDbEntity
  8
0
  6
Continuous
 62
     7
100
AcDbLine
 10
727.0000000044463
 20
1392.500000334842
 30
0.0
 11
781.0000000044463
 21
1392.500000334842
 31
0.0
  0
LINE
  5
7A
330
43
100
AcDbEntity
  8
0
  6
Continuous
 62
     3
100
AcDbLine
 10
713.5000000044463
 20
1406.500000334842
 30
0.0
 11
713.4500000044462
 21
1406.500000334842
 31
0.0
  0
LINE
  5
7B
330
43
100
AcDbEntity
  8
0
  6
Continuous
 62
     3
100
AcDbLine
 10
781.0000000044463
 20
1393.000000334842
 30
0.0
 11
781.0000000044463
 21
1392.950000334842
 31
0.0
  0
LINE
  5
7C
330
43
100
AcDbEntity
  8
0
  6
Continuous
 62
     3
100
AcDbLine
 10
727.0000000044463
 20
1393.000000334842
 30
0.0
 11
727.0000000044463
 21
1392.950000334842
 31
0.0
  0
LINE
  5
7D
330
43
100
AcDbEntity
  8
0
  6
Continuous
 62
     3
100
AcDbLine
 10
794.5000000044463
 20
1469.500000334842
 30
0.0
 11
794.5500000044462
 21
1469.500000334842
 31
0.0
  0
LINE
  5
7E
330
43
100
AcDbEntity
  8
0
  6
Continuous
 62
     3
100
AcDbLine
 10
781.0000000044463
 20
1483.000000334842
 30
0.0
 11
781.0000000044463
 21
1483.050000334843
 31
0.0
  0
ARC
  5
7F
330
43
100
AcDbEntity
  8
0
  6
Continuous
 62
     7
100
AcDbCircle
 10
727.0000000044463
 20
1469.500000334842
 30
0.0
 40
14.0
100
AcDbArc
 50
90.0
 51
180.0
  0
ARC
  5
80
330
43
100
AcDbEntity
  8
0
  6
Continuous
 62
     7
100
AcDbCircle
 10
781.0000000044463
 20
1406.500000334842
 30
0.0
 40
14.0
100
AcDbArc
 50
-90.0
 51
0.0
  0
ARC
  5
81
330
43
100
AcDbEntity
  8
0
  6
Continuous
 62
     7
100
AcDbCircle
 10
727.0000000044463
 20
1406.500000334842
 30
0.0
 40
14.0
100
AcDbArc
 50
180.0
 51
-90.0
  0
ARC
  5
82
330
43
100
AcDbEntity
  8
0
  6
Continuous
 62
     7
100
AcDbCircle
 10
781.0000000044463
 20
1469.500000334842
 30
0.0
 40
14.0
100
AcDbArc
 50
0.0
 51
90.0
  0
ENDBLK
  5
45
330
43
100
AcDbEntity
  8
0
100
AcDbBlockEnd
  0
BLOCK
  5
47
330
46
100
AcDbEntity
  8
0
100
AcDbBlockBegin
  2
10994_Deckel_GV__2
 70
     0
 71
     0
 10
713.0000000044463
 20
1392.500000334842
 30
0.0
  3
10994_Deckel_GV__2
  1

  0
LINE
  5
83
330
46
100
AcDbEntity
  8
1
  6
DOT_CENTER
 62
     2
100
AcDbLine
 10
759.4560000044463
 20
1475.454556737884
 30
0.0
 11
759.4560000044463
 21
1471.962716737887
 31
0.0
  0
LINE
  5
84
330
46
100
AcDbEntity
  8
1
  6
DOT_CENTER
 62
     2
100
AcDbLine
 10
761.2019200044448
 20
1473.708636737885
 30
0.0
 11
757.7100800044478
 21
1473.708636737885
 31
0.0
  0
LINE
  5
85
330
46
100
AcDbEntity
  8
0
  6
Continuous
 62
     3
100
AcDbLine
 10
795.0000000044463
 20
1469.500000334842
 30
0.0
 11
794.5500000044462
 21
1469.500000334842
 31
0.0
  0
LINE
  5
86
330
46
100
AcDbEntity
  8
0
  6
Continuous
 62
     3
100
AcDbLine
 10
794.5000000044463
 20
1406.500000334842
 30
0.0
 11
794.5500000044462
 21
1406.500000334842
 31
0.0
  0
LINE
  5
87
330
46
100
AcDbEntity
  8
0
  6
Continuous
 62
     3
100
AcDbLine
 10
794.5000000044463
 20
1469.500000334842
 30
0.0
 11
794.5000000044463
 21
1406.500000334842
 31
0.0
  0
LINE
  5
88
330
46
100
AcDbEntity
  8
0
  6
Continuous
 62
     3
100
AcDbLine
 10
795.0000000044463
 20
1406.500000334842
 30
0.0
 11
794.5500000044462
 21
1406.500000334842
 31
0.0
  0
LINE
  5
89
330
46
100
AcDbEntity
  8
0
  6
Continuous
 62
     7
100
AcDbLine
 10
795.0000000044463
 20
1469.500000334842
 30
0.0
 11
795.0000000044463
 21
1406.500000334842
 31
0.0
  0
LINE
  5
8A
330
46
100
AcDbEntity
  8
0
  6
Continuous
 62
     7
100
AcDbLine
 10
781.0000000044463
 20
1483.500000334842
 30
0.0
 11
727.0000000044463
 21
1483.500000334842
 31
0.0
  0
LINE
  5
8B
330
46
100
AcDbEntity
  8
0
  6
Continuous
 62
     3
100
AcDbLine
 10
727.0000000044463
 20
1483.000000334842
 30
0.0
 11
781.0000000044463
 21
1483.000000334842
 31
0.0
  0
LINE
  5
8C
330
46
100
AcDbEntity
  8
0
  6
Continuous
 62
     3
100
AcDbLine
 10
727.0000000044463
 20
1393.000000334842
 30
0.0
 11
781.0000000044463
 21
1393.000000334842
 31
0.0
  0
LINE
  5
8D
330
46
100
AcDbEntity
  8
0
  6
Continuous
 62
     3
100
AcDbLine
 10
727.0000000044463
 20
1483.500000334842
 30
0.0
 11
727.0000000044463
 21
1483.050000334843
 31
0.0
  0
LINE
  5
8E
330
46
100
AcDbEntity
  8
0
  6
Continuous
 62
     3
100
AcDbLine
 10
713.0000000044463
 20
1469.500000334842
 30
0.0
 11
713.4500000044462
 21
1469.500000334842
 31
0.0
  0
LINE
  5
8F
330
46
100
AcDbEntity
  8
0
  6
Continuous
 62
     3
100
AcDbLine
 10
727.0000000044463
 20
1483.000000334842
 30
0.0
 11
727.0000000044463
 21
1483.050000334843
 31
0.0
  0
LINE
  5
90
330
46
100
AcDbEntity
  8
0
  6
Continuous
 62
     7
100
AcDbLine
 10
713.0000000044463
 20
1406.500000334842
 30
0.0
 11
713.0000000044463
 21
1469.500000334842
 31
0.0
  0
LINE
  5
91
330
46
100
AcDbEntity
  8
0
  6
Continuous
 62
     3
100
AcDbLine
 10
720.9337172106761
 20
1473.876844873825
 30
0.0
 11
734.3248436474288
 21
1460.485718437072
 31
0.0
  0
LINE
  5
92
330
46
100
AcDbEntity
  8
0
  6
Continuous
 62
     3
100
AcDbLine
 10
721.2867860686351
 20
1474.229913731784
 30
0.0
 11
734.6779125053879
 21
1460.838787295031
 31
0.0
  0
LINE
  5
93
330
46
100
AcDbEntity
  8
0
  6
Continuous
 62
     3
100
AcDbLine
 10
735.1292131082573
 20
1461.290087897901
 30
0.0
 11
721.7380866715047
 21
1474.681214334654
 31
0.0
  0
LINE
  5
94
330
46
100
AcDbEntity
  8
0
  6
Continuous
 62
     3
100
AcDbLine
 10
735.4822819662164
 20
1461.64315675586
 30
0.0
 11
722.0911555294637
 21
1475.034283192613
 31
0.0
  0
LINE
  5
95
330
46
100
AcDbEntity
  8
0
  6
Continuous
 62
     7
100
AcDbLine
 10
759.6722873362917
 20
1473.435836737884
 30
0.0
 11
759.5606873362888
 21
1473.485436737883
 31
0.0
  0
LINE
  5
96
330
46
100
AcDbEntity
  8
0
  6
Continuous
 62
     7
100
AcDbLine
 10
759.8285273363109
 20
1473.634236737874
 30
0.0
 11
759.9401273362994
 21
1473.559836737884
 31
0.0
  0
LINE
  5
97
330
46
100
AcDbEntity
  8
0
  6
Continuous
 62
     7
100
AcDbLine
 10
759.9401273362994
 20
1473.708636737885
 30
0.0
 11
759.8285273363109
 21
1473.634236737874
 31
0.0
  0
LINE
  5
98
330
46
100
AcDbEntity
  8
0
  6
Continuous
 62
     7
100
AcDbLine
 10
759.6053273362907
 20
1473.783036737893
 30
0.0
 11
759.7169273363008
 21
1473.832636737885
 31
0.0
  0
LINE
  5
99
330
46
100
AcDbEntity
  8
0
  6
Continuous
 62
     7
100
AcDbLine
 10
759.7838873362982
 20
1473.088636737893
 30
0.0
 11
759.7838873362982
 21
1473.237436737883
 31
0.0
  0
LINE
  5
9A
330
46
100
AcDbEntity
  8
0
  6
Continuous
 62
     7
100
AcDbLine
 10
760.0517273362987
 20
1473.088636737875
 30
0.0
 11
760.0517273362987
 21
1473.237436737873
 31
0.0
  0
LINE
  5
9B
330
46
100
AcDbEntity
  8
0
  6
Continuous
 62
     7
100
AcDbLine
 10
760.0294073362995
 20
1474.353436737873
 30
0.0
 11
760.0517273362987
 21
1474.179836737884
 31
0.0
  0
LINE
  5
9C
330
46
100
AcDbEntity
  8
0
  6
Continuous
 62
     7
100
AcDbLine
 10
759.9401273362994
 20
1474.502236737885
 30
0.0
 11
760.0294073362995
 21
1474.353436737873
 31
0.0
  0
LINE
  5
9D
330
46
100
AcDbEntity
  8
0
  6
Continuous
 62
     7
100
AcDbLine
 10
759.8508473362884
 20
1472.716636737885
 30
0.0
 11
760.1410073362988
 21
1472.716636737885
 31
0.0
  0
LINE
  5
9E
330
46
100
AcDbEntity
  8
0
  6
Continuous
 62
     7
100
AcDbLine
 10
760.0740473363014
 20
1472.915036737883
 30
0.0
 11
760.1410073362988
 21
1472.716636737885
 31
0.0
  0
LINE
  5
9F
330
46
100
AcDbEntity
  8
0
  6
Continuous
 62
     7
100
AcDbLine
 10
759.8062073362901
 20
1472.890236737874
 30
0.0
 11
759.7838873362982
 21
1473.088636737893
 31
0.0
  0
LINE
  5
A0
330
46
100
AcDbEntity
  8
0
  6
Continuous
 62
     7
100
AcDbLine
 10
760.0517273362987
 20
1473.088636737875
 30
0.0
 11
760.0740473363014
 21
1472.915036737883
 31
0.0
  0
LINE
  5
A1
330
46
100
AcDbEntity
  8
0
  6
Continuous
 62
     7
100
AcDbLine
 10
759.7838873362982
 20
1473.237436737883
 30
0.0
 11
759.7392473362999
 21
1473.361436737883
 31
0.0
  0
LINE
  5
A2
330
46
100
AcDbEntity
  8
0
  6
Continuous
 62
     7
100
AcDbLine
 10
760.0294073362887
 20
1473.411036737883
 30
0.0
 11
760.0517273362987
 21
1473.237436737873
 31
0.0
  0
LINE
  5
A3
330
46
100
AcDbEntity
  8
0
  6
Continuous
 62
     7
100
AcDbLine
 10
760.0517273362987
 20
1474.031036737883
 30
0.0
 11
760.0294073362887
 21
1473.857436737883
 31
0.0
  0
LINE
  5
A4
330
46
100
AcDbEntity
  8
0
  6
Continuous
 62
     7
100
AcDbLine
 10
760.0517273362987
 20
1474.031036737883
 30
0.0
 11
760.0517273362987
 21
1474.179836737884
 31
0.0
  0
LINE
  5
A5
330
46
100
AcDbEntity
  8
0
  6
Continuous
 62
     7
100
AcDbLine
 10
759.7392473362999
 20
1473.361436737883
 30
0.0
 11
759.6722873362917
 21
1473.435836737884
 31
0.0
  0
LINE
  5
A6
330
46
100
AcDbEntity
  8
0
  6
Continuous
 62
     7
100
AcDbLine
 10
759.9401273362994
 20
1473.559836737884
 30
0.0
 11
760.0294073362887
 21
1473.411036737883
 31
0.0
  0
LINE
  5
A7
330
46
100
AcDbEntity
  8
0
  6
Continuous
 62
     7
100
AcDbLine
 10
760.0294073362887
 20
1473.857436737883
 30
0.0
 11
759.9401273362994
 21
1473.708636737885
 31
0.0
  0
LINE
  5
A8
330
46
100
AcDbEntity
  8
0
  6
Continuous
 62
     7
100
AcDbLine
 10
758.7571673362983
 20
1472.716636737885
 30
0.0
 11
759.0026873362997
 21
1472.716636737885
 31
0.0
  0
LINE
  5
A9
330
46
100
AcDbEntity
  8
0
  6
Continuous
 62
     7
100
AcDbLine
 10
759.0026873362997
 20
1472.716636737885
 30
0.0
 11
759.0026873362888
 21
1473.510236737874
 31
0.0
  0
LINE
  5
AA
330
46
100
AcDbEntity
  8
0
  6
Continuous
 62
     7
100
AcDbLine
 10
758.7571673362983
 20
1472.716636737885
 30
0.0
 11
758.7571673362983
 21
1474.700636737885
 31
0.0
  0
LINE
  5
AB
330
46
100
AcDbEntity
  8
0
  6
Continuous
 62
     7
100
AcDbLine
 10
759.7169273363008
 20
1473.832636737885
 30
0.0
 11
759.7838873362982
 21
1473.907036737882
 31
0.0
  0
LINE
  5
AC
330
46
100
AcDbEntity
  8
0
  6
Continuous
 62
     7
100
AcDbLine
 10
759.7838873362982
 20
1473.907036737882
 30
0.0
 11
759.8285273363001
 21
1474.031036737883
 31
0.0
  0
LINE
  5
AD
330
46
100
AcDbEntity
  8
0
  6
Continuous
 62
     7
100
AcDbLine
 10
759.8285273363001
 20
1474.179836737884
 30
0.0
 11
759.7838873362982
 21
1474.303836737866
 31
0.0
  0
LINE
  5
AE
330
46
100
AcDbEntity
  8
0
  6
Continuous
 62
     7
100
AcDbLine
 10
759.7838873362982
 20
1474.303836737866
 30
0.0
 11
759.71692733629
 21
1474.378236737874
 31
0.0
  0
LINE
  5
AF
330
46
100
AcDbEntity
  8
0
  6
Continuous
 62
     7
100
AcDbLine
 10
759.8285273363001
 20
1474.031036737883
 30
0.0
 11
759.8285273363001
 21
1474.179836737884
 31
0.0
  0
LINE
  5
B0
330
46
100
AcDbEntity
  8
0
  6
Continuous
 62
     7
100
AcDbLine
 10
759.8508473362884
 20
1472.716636737885
 30
0.0
 11
759.8062073362901
 21
1472.890236737874
 31
0.0
  0
LINE
  5
B1
330
46
100
AcDbEntity
  8
0
  6
Continuous
 62
     7
100
AcDbLine
 10
759.8508473362992
 20
1474.601436737883
 30
0.0
 11
759.9401273362994
 21
1474.502236737885
 31
0.0
  0
LINE
  5
B2
330
46
100
AcDbEntity
  8
0
  6
Continuous
 62
     7
100
AcDbLine
 10
759.71692733629
 20
1474.675836737884
 30
0.0
 11
759.8508473362992
 21
1474.601436737883
 31
0.0
  0
LINE
  5
B3
330
46
100
AcDbEntity
  8
0
  6
Continuous
 62
     7
100
AcDbLine
 10
759.4714073362887
 20
1473.758236737885
 30
0.0
 11
759.6053273362907
 21
1473.783036737893
 31
0.0
  0
LINE
  5
B4
330
46
100
AcDbEntity
  8
0
  6
Continuous
 62
     7
100
AcDbLine
 10
759.71692733629
 20
1474.378236737874
 30
0.0
 11
759.6053273363015
 21
1474.427836737884
 31
0.0
  0
LINE
  5
B5
330
46
100
AcDbEntity
  8
0
  6
Continuous
 62
     7
100
AcDbLine
 10
759.6053273363015
 20
1474.427836737884
 30
0.0
 11
759.4714073362887
 21
1474.452636737885
 31
0.0
  0
LINE
  5
B6
330
46
100
AcDbEntity
  8
0
  6
Continuous
 62
     7
100
AcDbLine
 10
759.5606873362888
 20
1473.485436737883
 30
0.0
 11
759.4267673362904
 21
1473.510236737874
 31
0.0
  0
LINE
  5
B7
330
46
100
AcDbEntity
  8
0
  6
Continuous
 62
     7
100
AcDbLine
 10
759.5383673363006
 20
1474.700636737885
 30
0.0
 11
759.71692733629
 21
1474.675836737884
 31
0.0
  0
LINE
  5
B8
330
46
100
AcDbEntity
  8
0
  6
Continuous
 62
     7
100
AcDbLine
 10
759.0026873362997
 20
1473.758236737874
 30
0.0
 11
759.4714073362887
 21
1473.758236737885
 31
0.0
  0
LINE
  5
B9
330
46
100
AcDbEntity
  8
0
  6
Continuous
 62
     7
100
AcDbLine
 10
759.0026873362997
 20
1474.452636737885
 30
0.0
 11
759.4714073362887
 21
1474.452636737885
 31
0.0
  0
LINE
  5
BA
330
46
100
AcDbEntity
  8
0
  6
Continuous
 62
     7
100
AcDbLine
 10
759.0026873362997
 20
1473.758236737874
 30
0.0
 11
759.0026873362997
 21
1474.452636737885
 31
0.0
  0
LINE
  5
BB
330
46
100
AcDbEntity
  8
0
  6
Continuous
 62
     7
100
AcDbLine
 10
759.0026873362888
 20
1473.510236737874
 30
0.0
 11
759.4267673362904
 21
1473.510236737874
 31
0.0
  0
LINE
  5
BC
330
46
100
AcDbEntity
  8
0
  6
Continuous
 62
     7
100
AcDbLine
 10
758.7571673362983
 20
1474.700636737885
 30
0.0
 11
759.5383673363006
 21
1474.700636737885
 31
0.0
  0
LINE
  5
BD
330
46
100
AcDbEntity
  8
0
  6
Continuous
 62
     7
100
AcDbLine
 10
753.2064000044072
 20
1473.116800334853
 30
0.0
 11
753.2064000044072
 21
1474.803200334861
 31
0.0
  0
LINE
  5
BE
330
46
100
AcDbEntity
  8
0
  6
Continuous
 62
     7
100
AcDbLine
 10
753.2064000044072
 20
1470.636800334853
 30
0.0
 11
753.2064000044072
 21
1472.323200334832
 31
0.0
  0
LINE
  5
BF
330
46
100
AcDbEntity
  8
0
  6
Continuous
 62
     7
100
AcDbLine
 10
755.4880000044462
 20
1470.736000334852
 30
0.0
 11
755.4880000044462
 21
1474.803200334861
 31
0.0
  0
LINE
  5
C0
330
46
100
AcDbEntity
  8
0
  6
Continuous
 62
     7
100
AcDbLine
 10
754.0000000044463
 20
1470.636800334853
 30
0.0
 11
754.0000000044463
 21
1474.803200334861
 31
0.0
  0
LINE
  5
C1
330
46
100
AcDbEntity
  8
0
  6
Continuous
 62
     7
100
AcDbLine
 10
756.2816000042687
 20
1471.132800334853
 30
0.0
 11
756.2816000042687
 21
1474.803200334861
 31
0.0
  0
LINE
  5
C2
330
46
100
AcDbEntity
  8
0
  6
Continuous
 62
     7
100
AcDbLine
 10
750.8256000042687
 20
1470.636800334853
 30
0.0
 11
750.8256000042687
 21
1472.323200334832
 31
0.0
  0
LINE
  5
C3
330
46
100
AcDbEntity
  8
0
  6
Continuous
 62
     7
100
AcDbLine
 10
750.0320000044462
 20
1470.63680033486
 30
0.0
 11
750.0320000044462
 21
1474.803200334861
 31
0.0
  0
LINE
  5
C4
330
46
100
AcDbEntity
  8
0
  6
Continuous
 62
     7
100
AcDbLine
 10
750.8256000042687
 20
1473.116800334853
 30
0.0
 11
750.8256000042687
 21
1474.803200334861
 31
0.0
  0
LINE
  5
C5
330
46
100
AcDbEntity
  8
0
  6
Continuous
 62
     7
100
AcDbLine
 10
753.2064000044072
 20
1473.116800334853
 30
0.0
 11
750.8256000042687
 21
1473.116800334853
 31
0.0
  0
LINE
  5
C6
330
46
100
AcDbEntity
  8
0
  6
Continuous
 62
     7
100
AcDbLine
 10
758.0672000043077
 20
1470.339200334832
 30
0.0
 11
755.8848000043574
 21
1470.339200334832
 31
0.0
  0
LINE
  5
C7
330
46
100
AcDbEntity
  8
0
  6
Continuous
 62
     7
100
AcDbLine
 10
758.0672000043077
 20
1471.132800334853
 30
0.0
 11
756.2816000042687
 21
1471.132800334853
 31
0.0
  0
LINE
  5
C8
330
46
100
AcDbEntity
  8
0
  6
Continuous
 62
     7
100
AcDbLine
 10
753.2064000044072
 20
1472.323200334832
 30
0.0
 11
750.8256000042687
 21
1472.323200334832
 31
0.0
  0
LINE
  5
C9
330
46
100
AcDbEntity
  8
0
  6
Continuous
 62
     7
100
AcDbLine
 10
720.6435066857209
 20
1474.01929264753
 30
0.0
 11
720.5492972220873
 21
1474.016938585716
 31
0.0
  0
LINE
  5
CA
330
46
100
AcDbEntity
  8
0
  6
Continuous
 62
     7
100
AcDbLine
 10
735.7724924911703
 20
1461.500708982155
 30
0.0
 11
735.8667019548052
 21
1461.503063043969
 31
0.0
  0
LINE
  5
CB
330
46
100
AcDbEntity
  8
0
  6
Continuous
 62
     3
100
AcDbLine
 10
713.5000000044463
 20
1406.500000334842
 30
0.0
 11
713.5000000044463
 21
1469.500000334842
 31
0.0
  0
LINE
  5
CC
330
46
100
AcDbEntity
  8
0
  6
Continuous
 62
     3
100
AcDbLine
 10
713.5000000044463
 20
1469.500000334842
 30
0.0
 11
713.4500000044462
 21
1469.500000334842
 31
0.0
  0
LINE
  5
CD
330
46
100
AcDbEntity
  8
0
  6
Continuous
 62
     3
100
AcDbLine
 10
781.0000000044463
 20
1392.500000334842
 30
0.0
 11
781.0000000044463
 21
1392.950000334842
 31
0.0
  0
LINE
  5
CE
330
46
100
AcDbEntity
  8
0
  6
Continuous
 62
     3
100
AcDbLine
 10
787.0662822862164
 20
1402.12315579586
 30
0.0
 11
773.6751558494637
 21
1415.514282232613
 31
0.0
  0
LINE
  5
CF
330
46
100
AcDbEntity
  8
0
  6
Continuous
 62
     3
100
AcDbLine
 10
786.7132134282573
 20
1401.770086937901
 30
0.0
 11
773.3220869915046
 21
1415.161213374654
 31
0.0
  0
LINE
  5
D0
330
46
100
AcDbEntity
  8
0
  6
Continuous
 62
     3
100
AcDbLine
 10
786.2619128253879
 20
1401.318786335031
 30
0.0
 11
772.8707863886352
 21
1414.709912771784
 31
0.0
  0
LINE
  5
D1
330
46
100
AcDbEntity
  8
0
  6
Continuous
 62
     3
100
AcDbLine
 10
785.9088439674289
 20
1400.965717477072
 30
0.0
 11
772.5177175306762
 21
1414.356843913825
 31
0.0
  0
LINE
  5
D2
330
46
100
AcDbEntity
  8
0
  6
Continuous
 62
     7
100
AcDbLine
 10
787.3564928111675
 20
1401.980708022156
 30
0.0
 11
787.4507022748049
 21
1401.983062083969
 31
0.0
  0
LINE
  5
D3
330
46
100
AcDbEntity
  8
0
  6
Continuous
 62
     3
100
AcDbLine
 10
713.0000000044463
 20
1406.500000334842
 30
0.0
 11
713.4500000044462
 21
1406.500000334842
 31
0.0
  0
LINE
  5
D4
330
46
100
AcDbEntity
  8
0
  6
Continuous
 62
     7
100
AcDbLine
 10
727.0000000044463
 20
1392.500000334842
 30
0.0
 11
781.0000000044463
 21
1392.500000334842
 31
0.0
  0
LINE
  5
D5
330
46
100
AcDbEntity
  8
0
  6
Continuous
 62
     3
100
AcDbLine
 10
727.0000000044463
 20
1392.500000334842
 30
0.0
 11
727.0000000044463
 21
1392.950000334842
 31
0.0
  0
LINE
  5
D6
330
46
100
AcDbEntity
  8
0
  6
Continuous
 62
     3
100
AcDbLine
 10
713.5000000044463
 20
1406.500000334842
 30
0.0
 11
713.4500000044462
 21
1406.500000334842
 31
0.0
  0
LINE
  5
D7
330
46
100
AcDbEntity
  8
0
  6
Continuous
 62
     7
100
AcDbLine
 10
772.2275070057167
 20
1414.499291687531
 30
0.0
 11
772.1332975420871
 21
1414.496937625716
 31
0.0
  0
LINE
  5
D8
330
46
100
AcDbEntity
  8
0
  6
Continuous
 62
     3
100
AcDbLine
 10
781.0000000044463
 20
1393.000000334842
 30
0.0
 11
781.0000000044463
 21
1392.950000334842
 31
0.0
  0
LINE
  5
D9
330
46
100
AcDbEntity
  8
0
  6
Continuous
 62
     3
100
AcDbLine
 10
727.0000000044463
 20
1393.000000334842
 30
0.0
 11
727.0000000044463
 21
1392.950000334842
 31
0.0
  0
LINE
  5
DA
330
46
100
AcDbEntity
  8
0
  6
Continuous
 62
     3
100
AcDbLine
 10
794.5000000044463
 20
1469.500000334842
 30
0.0
 11
794.5500000044462
 21
1469.500000334842
 31
0.0
  0
LINE
  5
DB
330
46
100
AcDbEntity
  8
0
  6
Continuous
 62
     3
100
AcDbLine
 10
781.0000000044463
 20
1483.500000334842
 30
0.0
 11
781.0000000044463
 21
1483.050000334843
 31
0.0
  0
LINE
  5
DC
330
46
100
AcDbEntity
  8
0
  6
Continuous
 62
     3
100
AcDbLine
 10
781.0000000044463
 20
1483.000000334842
 30
0.0
 11
781.0000000044463
 21
1483.050000334843
 31
0.0
  0
LINE
  5
DD
330
46
100
AcDbEntity
  8
1
  6
PHANTOM
 62
     2
100
AcDbLine
 10
754.0000000044463
 20
1389.81648236148
 30
0.0
 11
754.0000000044463
 21
1485.52347011679
 31
0.0
  0
LINE
  5
DE
330
46
100
AcDbEntity
  8
1
  6
PHANTOM
 62
     2
100
AcDbLine
 10
710.607325310563
 20
1438.000000334842
 30
0.0
 11
797.238650433908
 21
1438.000000334842
 31
0.0
  0
ARC
  5
DF
330
46
100
AcDbEntity
  8
0
  6
Continuous
 62
     7
100
AcDbCircle
 10
727.0000000044463
 20
1469.500000334842
 30
0.0
 40
14.0
100
AcDbArc
 50
90.0
 51
180.0
  0
ARC
  5
E0
330
46
100
AcDbEntity
  8
0
  6
Continuous
 62
     7
100
AcDbCircle
 10
758.0672000043077
 20
1470.736000334842
 30
0.0
 40
0.3968000000099892
100
AcDbArc
 50
-90.0
 51
90.0
  0
ARC
  5
E1
330
46
100
AcDbEntity
  8
0
  6
Continuous
 62
     7
100
AcDbCircle
 10
755.8848000043574
 20
1474.803200334861
 30
0.0
 40
0.396799999911309
100
AcDbArc
 50
0.0
 51
180.0
  0
ARC
  5
E2
330
46
100
AcDbEntity
  8
0
  6
Continuous
 62
     7
100
AcDbCircle
 10
753.6032000044268
 20
1474.803200334861
 30
0.0
 40
0.3968000000195389
100
AcDbArc
 50
0.0
 51
180.0
  0
ARC
  5
E3
330
46
100
AcDbEntity
  8
0
  6
Continuous
 62
     7
100
AcDbCircle
 10
750.4288000043574
 20
1474.803200334861
 30
0.0
 40
0.396799999911309
100
AcDbArc
 50
0.0
 51
180.0
  0
ARC
  5
E4
330
46
100
AcDbEntity
  8
0
  6
Continuous
 62
     7
100
AcDbCircle
 10
753.6032000044268
 20
1470.636800334853
 30
0.0
 40
0.3968000000195389
100
AcDbArc
 50
180.0
 51
0.0
  0
ARC
  5
E5
330
46
100
AcDbEntity
  8
0
  6
Continuous
 62
     7
100
AcDbCircle
 10
755.8848000044115
 20
1470.736000334797
 30
0.0
 40
0.3967999999653102
100
AcDbArc
 50
179.9999999920548
 51
-90.00000000781391
  0
ARC
  5
E6
330
46
100
AcDbEntity
  8
0
  6
Continuous
 62
     7
100
AcDbCircle
 10
750.4288000043574
 20
1470.636800334856
 30
0.0
 40
0.3967999999111953
100
AcDbArc
 50
179.999999999409
 51
-0.00000000042681
  0
ARC
  5
E7
330
46
100
AcDbEntity
  8
0
  6
Continuous
 62
     3
100
AcDbCircle
 10
727.0000000044463
 20
1469.500000334842
 30
0.0
 40
13.5
100
AcDbArc
 50
90.0
 51
180.0
  0
ARC
  5
E8
330
46
100
AcDbEntity
  8
0
  6
Continuous
 62
     3
100
AcDbCircle
 10
722.4455245806904
 20
1475.381162563074
 30
0.0
 40
0.4958857954399262
100
AcDbArc
 50
175.6583172079097
 51
-135.6119240605068
  0
ARC
  5
E9
330
46
100
AcDbEntity
  8
0
  6
Continuous
 62
     3
100
AcDbCircle
 10
722.4471370844459
 20
1475.386151073339
 30
0.0
 40
0.4971421427815448
100
AcDbArc
 50
127.2616902543739
 51
176.245673905728
  0
ARC
  5
EA
330
46
100
AcDbEntity
  8
0
  6
Continuous
 62
     3
100
AcDbCircle
 10
720.5863400360316
 20
1473.512504420062
 30
0.0
 40
0.5057924451234033
100
AcDbArc
 50
94.19994174748888
 51
142.2926940924182
  0
ARC
  5
EB
330
46
100
AcDbEntity
  8
0
  6
Continuous
 62
     3
100
AcDbCircle
 10
720.5835856397922
 20
1473.513551718637
 30
0.0
 40
0.5045533009861508
100
AcDbArc
 50
46.05689874537364
 51
93.89670810719257
  0
ARC
  5
EC
330
46
100
AcDbEntity
  8
0
  6
Continuous
 62
     7
100
AcDbCircle
 10
728.2079995884462
 20
1467.760000814842
 30
0.0
 40
10.11949405849977
100
AcDbArc
 50
130.5020806732297
 51
139.4979193267635
  0
ARC
  5
ED
330
46
100
AcDbEntity
  8
0
  6
Continuous
 62
     3
100
AcDbCircle
 10
735.8296591408618
 20
1462.007497209621
 30
0.0
 40
0.5057924451215142
100
AcDbArc
 50
-85.80005825261165
 51
-37.70730590748966
  0
ARC
  5
EE
330
46
100
AcDbEntity
  8
0
  6
Continuous
 62
     3
100
AcDbCircle
 10
733.960503193665
 20
1460.138341262428
 30
0.0
 40
0.5057924451238235
100
AcDbArc
 50
-52.2926940923909
 51
-4.19994174744562
  0
ARC
  5
EF
330
46
100
AcDbEntity
  8
0
  6
Continuous
 62
     3
100
AcDbCircle
 10
733.9615504922401
 20
1460.135586866188
 30
0.0
 40
0.5045533009867622
100
AcDbArc
 50
-3.89670810709889
 51
43.94310125455436
  0
ARC
  5
F0
330
46
100
AcDbEntity
  8
0
  6
Continuous
 62
     3
100
AcDbCircle
 10
735.8324135370999
 20
1462.006449911047
 30
0.0
 40
0.5045533009851804
100
AcDbArc
 50
-133.9431012546609
 51
-86.10329189276179
  0
ARC
  5
F1
330
46
100
AcDbEntity
  8
0
  6
Continuous
 62
     7
100
AcDbCircle
 10
728.2079995884462
 20
1467.760000814842
 30
0.0
 40
10.1194940584989
100
AcDbArc
 50
-49.49791932676614
 51
-40.5020806732326
  0
ARC
  5
F2
330
46
100
AcDbEntity
  8
0
  6
Continuous
 62
     7
100
AcDbCircle
 10
781.0000000044463
 20
1406.500000334842
 30
0.0
 40
14.0
100
AcDbArc
 50
-90.0
 51
0.0
  0
ARC
  5
F3
330
46
100
AcDbEntity
  8
0
  6
Continuous
 62
     3
100
AcDbCircle
 10
781.0000000044463
 20
1406.500000334842
 30
0.0
 40
13.5
100
AcDbArc
 50
-90.0
 51
0.0
  0
ARC
  5
F4
330
46
100
AcDbEntity
  8
0
  6
Continuous
 62
     3
100
AcDbCircle
 10
785.5544749162068
 20
1400.618838106613
 30
0.0
 40
0.4958857954350932
100
AcDbArc
 50
-4.34168279236983
 51
44.38807593970099
  0
ARC
  5
F5
330
46
100
AcDbEntity
  8
0
  6
Continuous
 62
     3
100
AcDbCircle
 10
785.552862412448
 20
1400.613849596345
 30
0.0
 40
0.4971421427801759
100
AcDbArc
 50
-52.73830974570366
 51
-3.75432609418025
  0
ARC
  5
F6
330
46
100
AcDbEntity
  8
0
  6
Continuous
 62
     3
100
AcDbCircle
 10
787.4131616566794
 20
1402.477524847092
 30
0.0
 40
0.495885795444771
100
AcDbArc
 50
-134.3880759392395
 51
-85.6583172081287
  0
ARC
  5
F7
330
46
100
AcDbEntity
  8
0
  6
Continuous
 62
     3
100
AcDbCircle
 10
787.4181501669423
 20
1402.479137350844
 30
0.0
 40
0.4971421427836311
100
AcDbArc
 50
-86.2456739056528
 51
-37.26169025452736
  0
ARC
  5
F8
330
46
100
AcDbEntity
  8
0
  6
Continuous
 62
     7
100
AcDbCircle
 10
779.7919999084462
 20
1408.239999854842
 30
0.0
 40
10.1194940584989
100
AcDbArc
 50
-49.49791932676614
 51
-40.5020806732326
  0
ARC
  5
F9
330
46
100
AcDbEntity
  8
0
  6
Continuous
 62
     7
100
AcDbCircle
 10
727.0000000044463
 20
1406.500000334842
 30
0.0
 40
14.0
100
AcDbArc
 50
180.0
 51
-90.0
  0
ARC
  5
FA
330
46
100
AcDbEntity
  8
0
  6
Continuous
 62
     3
100
AcDbCircle
 10
727.0000000044463
 20
1406.500000334842
 30
0.0
 40
13.5
100
AcDbArc
 50
180.0
 51
-90.0
  0
ARC
  5
FB
330
46
100
AcDbEntity
  8
0
  6
Continuous
 62
     3
100
AcDbCircle
 10
772.1703403560342
 20
1413.992503460058
 30
0.0
 40
0.505792445127685
100
AcDbArc
 50
94.19994174776316
 51
142.2926940922451
  0
ARC
  5
FC
330
46
100
AcDbEntity
  8
0
  6
Continuous
 62
     3
100
AcDbCircle
 10
774.0295249006958
 20
1415.861161603076
 30
0.0
 40
0.495885795445412
100
AcDbArc
 50
175.6583172080632
 51
-135.6119240607697
  0
ARC
  5
FD
330
46
100
AcDbEntity
  8
0
  6
Continuous
 62
     3
100
AcDbCircle
 10
772.1675859597915
 20
1413.993550758635
 30
0.0
 40
0.5045533009883402
100
AcDbArc
 50
46.05689874548774
 51
93.89670810711061
  0
ARC
  5
FE
330
46
100
AcDbEntity
  8
0
  6
Continuous
 62
     7
100
AcDbCircle
 10
779.7919999084462
 20
1408.239999854842
 30
0.0
 40
10.11949405849977
100
AcDbArc
 50
130.5020806732297
 51
139.497919326767
  0
ARC
  5
FF
330
46
100
AcDbEntity
  8
0
  6
Continuous
 62
     3
100
AcDbCircle
 10
774.0311374044476
 20
1415.866150113338
 30
0.0
 40
0.4971421427834821
100
AcDbArc
 50
127.261690254451
 51
176.2456739055064
  0
ARC
  5
100
330
46
100
AcDbEntity
  8
0
  6
Continuous
 62
     3
100
AcDbCircle
 10
781.0000000044463
 20
1469.500000334842
 30
0.0
 40
13.5
100
AcDbArc
 50
0.0
 51
90.0
  0
ARC
  5
101
330
46
100
AcDbEntity
  8
0
  6
Continuous
 62
     7
100
AcDbCircle
 10
781.0000000044463
 20
1469.500000334842
 30
0.0
 40
14.0
100
AcDbArc
 50
0.0
 51
90.0
  0
CIRCLE
  5
102
330
46
100
AcDbEntity
  8
0
  6
Continuous
 62
     7
100
AcDbCircle
 10
759.4560000044463
 20
1473.708636737885
 30
0.0
 40
1.488000000000966
  0
CIRCLE
  5
103
330
46
100
AcDbEntity
  8
0
  6
Continuous
 62
     7
100
AcDbCircle
 10
759.4560000044463
 20
1473.708636737885
 30
0.0
 40
1.587199999999029
  0
CIRCLE
  5
104
330
46
100
AcDbEntity
  8
0
  6
Continuous
 62
     3
100
AcDbCircle
 10
728.2079995884462
 20
1467.760000814842
 30
0.0
 40
10.15682575372716
  0
CIRCLE
  5
105
330
46
100
AcDbEntity
  8
0
  6
Continuous
 62
     3
100
AcDbCircle
 10
728.2079995884462
 20
1467.760000814842
 30
0.0
 40
10.65627627269487
  0
CIRCLE
  5
106
330
46
100
AcDbEntity
  8
0
  6
Continuous
 62
     3
100
AcDbCircle
 10
779.7919999084462
 20
1408.239999854842
 30
0.0
 40
10.15682575372728
  0
CIRCLE
  5
107
330
46
100
AcDbEntity
  8
0
  6
Continuous
 62
     3
100
AcDbCircle
 10
779.7919999084462
 20
1408.239999854842
 30
0.0
 40
10.65627627269498
  0
SPLINE
  5
108
330
46
100
AcDbEntity
  8
0
  6
Continuous
 62
     3
100
AcDbSpline
210
0.0
220
0.0
230
1.0
 70
     8
 71
     3
 72
    13
 73
     9
 74
     7
 42
0.0000000001
 43
0.0000000001
 44
0.00000001
 40
0.0
 40
0.0
 40
0.0
 40
0.0
 40
1.72837863466286
 40
5.135072793364703
 40
9.486279508128266
 40
13.83748622289175
 40
17.24418038159384
 40
18.97255901625712
 40
18.97255901625712
 40
18.97255901625712
 40
18.97255901625712
 10
735.4822819662164
 20
1461.64315675586
 30
0.0
 10
735.1351118173777
 20
1462.103361887817
 30
0.0
 10
734.1036572794558
 20
1463.470647276031
 30
0.0
 10
731.9031939917899
 20
1465.749704887856
 30
0.0
 10
729.1056047776387
 20
1468.657606004035
 30
0.0
 10
726.1977036614601
 20
1471.455195218186
 30
0.0
 10
723.9186460496346
 20
1473.655658505852
 30
0.0
 10
722.5513606614202
 20
1474.687113043774
 30
0.0
 10
722.0911555294637
 20
1475.034283192613
 30
0.0
 11
735.4822819662164
 21
1461.64315675586
 31
0.0
 11
734.422680422348
 21
1463.00863735733
 31
0.0
 11
732.1236783063306
 21
1465.522629075988
 31
0.0
 11
729.0857854026219
 21
1468.637786629018
 31
0.0
 11
725.9706278495919
 21
1471.675679532726
 31
0.0
 11
723.4566361309336
 21
1473.974681648744
 31
0.0
 11
722.0911555294637
 21
1475.034283192613
 31
0.0
  0
SPLINE
  5
109
330
46
100
AcDbEntity
  8
0
  6
Continuous
 62
     3
100
AcDbSpline
210
0.0
220
0.0
230
1.0
 70
     8
 71
     3
 72
    13
 73
     9
 74
     7
 42
0.0000000001
 43
0.0000000001
 44
0.00000001
 40
0.0
 40
0.0
 40
0.0
 40
0.0
 40
1.72837863466261
 40
5.135072793364957
 40
9.48627950812844
 40
13.83748622289201
 40
17.2441803815941
 40
18.9725590162571
 40
18.9725590162571
 40
18.9725590162571
 40
18.9725590162571
 10
720.9337172106761
 20
1473.876844873825
 30
0.0
 10
721.2808873595148
 20
1473.416639741868
 30
0.0
 10
722.3123418974367
 20
1472.049354353654
 30
0.0
 10
724.5128051851023
 20
1469.770296741829
 30
0.0
 10
727.3103943992537
 20
1466.86239562565
 30
0.0
 10
730.2182955154321
 20
1464.064806411498
 30
0.0
 10
732.497353127258
 20
1461.864343123833
 30
0.0
 10
733.8646385154722
 20
1460.83288858591
 30
0.0
 10
734.3248436474288
 20
1460.485718437072
 30
0.0
 11
720.9337172106761
 21
1473.876844873825
 31
0.0
 11
721.9933187545445
 21
1472.511364272355
 31
0.0
 11
724.2923208705619
 21
1469.997372553697
 31
0.0
 11
727.3302137742704
 21
1466.882215000667
 31
0.0
 11
730.4453713273006
 21
1463.844322096958
 31
0.0
 11
732.9593630459589
 21
1461.545319980941
 31
0.0
 11
734.3248436474288
 21
1460.485718437072
 31
0.0
  0
SPLINE
  5
10A
330
46
100
AcDbEntity
  8
0
  6
Continuous
 62
     3
100
AcDbSpline
210
0.0
220
0.0
230
1.0
 70
     8
 71
     3
 72
    13
 73
     9
 74
     7
 42
0.0000000001
 43
0.0000000001
 44
0.00000001
 40
0.0
 40
0.0
 40
0.0
 40
0.0
 40
1.817765200377705
 40
5.400643376389751
 40
9.976881468623485
 40
14.5531195608569
 40
18.13599773686877
 40
19.95376293724693
 40
19.95376293724693
 40
19.95376293724693
 40
19.95376293724693
 10
720.186184594146
 20
1473.821861204169
 30
0.0
 10
720.5513093431522
 20
1473.337855641309
 30
0.0
 10
721.6361076201059
 20
1471.899858348449
 30
0.0
 10
723.9503722776344
 20
1469.502934703741
 30
0.0
 10
726.8926444259057
 20
1466.444645652302
 30
0.0
 10
729.950933477345
 20
1463.502373504031
 30
0.0
 10
732.3478571220526
 20
1461.188108846502
 30
0.0
 10
733.7858544149121
 20
1460.103310569548
 30
0.0
 10
734.2698599777725
 20
1459.738185820542
 30
0.0
 11
720.186184594146
 21
1473.821861204169
 31
0.0
 11
721.3005855558811
 21
1472.385762036218
 31
0.0
 11
723.7184851747954
 21
1469.741754196405
 31
0.0
 11
726.9134887996308
 21
1466.465490026027
 31
0.0
 11
730.1897529700084
 21
1463.270486401192
 31
0.0
 11
732.8337608098218
 21
1460.852586782278
 31
0.0
 11
734.2698599777725
 21
1459.738185820542
 31
0.0
  0
SPLINE
  5
10B
330
46
100
AcDbEntity
  8
0
  6
Continuous
 62
     3
100
AcDbSpline
210
0.0
220
0.0
230
1.0
 70
     8
 71
     3
 72
    13
 73
     9
 74
     7
 42
0.0000000001
 43
0.0000000001
 44
0.00000001
 40
0.0
 40
0.0
 40
0.0
 40
0.0
 40
1.817765200377775
 40
5.400643376389409
 40
9.976881468623386
 40
14.55311956085704
 40
18.1359977368689
 40
19.95376293724692
 40
19.95376293724692
 40
19.95376293724692
 40
19.95376293724692
 10
736.2298145827465
 20
1461.698140425516
 30
0.0
 10
735.8646898337403
 20
1462.182145988377
 30
0.0
 10
734.7798915567864
 20
1463.620143281236
 30
0.0
 10
732.465626899258
 20
1466.017066925944
 30
0.0
 10
729.5233547509863
 20
1469.075355977382
 30
0.0
 10
726.4650656995478
 20
1472.017628125654
 30
0.0
 10
724.06814205484
 20
1474.331892783183
 30
0.0
 10
722.6301447619803
 20
1475.416691060137
 30
0.0
 10
722.14613919912
 20
1475.781815809143
 30
0.0
 11
736.2298145827465
 21
1461.698140425516
 31
0.0
 11
735.1154136210113
 21
1463.134239593466
 31
0.0
 11
732.697514002097
 21
1465.77824743328
 31
0.0
 11
729.5025103772615
 21
1469.054511603658
 31
0.0
 11
726.2262462068841
 21
1472.249515228493
 31
0.0
 11
723.5822383670707
 21
1474.667414847408
 31
0.0
 11
722.14613919912
 21
1475.781815809143
 31
0.0
  0
SPLINE
  5
10C
330
46
100
AcDbEntity
  8
0
  6
Continuous
 62
     7
100
AcDbSpline
210
0.0
220
0.0
230
1.0
 70
    11
 71
     3
 72
    79
 73
    75
 74
    73
 42
0.0000000001
 43
0.0000000001
 44
0.00000001
 40
0.0
 40
0.0
 40
0.0
 40
0.0
 40
0.3876703588429714
 40
0.7728857663830573
 40
1.237764012857425
 40
1.700618698072871
 40
2.263910556271011
 40
2.826399825693974
 40
3.492153462796487
 40
4.157491014182858
 40
4.917599913440629
 40
5.677500738511894
 40
6.516822499428049
 40
7.35603121675589
 40
8.254827288119547
 40
9.153563824695281
 40
10.0891549600057
 40
11.02472009494865
 40
11.97275044250502
 40
12.92078079011876
 40
13.85634592514573
 40
14.79193706048111
 40
15.69067359705481
 40
16.58946966842025
 40
17.42867838575066
 40
18.2680001466677
 40
19.02790097173934
 40
19.78800987099848
 40
20.45334742238413
 40
21.1191010594818
 40
21.68159032890059
 40
22.24488218709886
 40
22.70773687231525
 40
23.17261511878985
 40
23.55783052632878
 40
23.94550088516773
 40
24.30081809165266
 40
24.65613529814661
 40
25.04380565700055
 40
25.42902106454379
 40
25.89389931101489
 40
26.35675399622228
 40
26.9200458544145
 40
27.48253512383953
 40
28.14828876094414
 40
28.81362631232822
 40
29.57373521158318
 40
30.33363603665289
 40
31.17295779756923
 40
32.0121665148989
 40
32.91096258626394
 40
33.8096991228373
 40
34.74529025817277
 40
35.68085539319978
 40
36.62888574081353
 40
37.57691608836999
 40
38.51248122331319
 40
39.44807235862329
 40
40.34680889519872
 40
41.24560496656169
 40
42.084813683889
 40
42.92413544480485
 40
43.68403626987504
 40
44.44414516912942
 40
45.10948272051434
 40
45.77523635762205
 40
46.33772562704883
 40
46.90101748524063
 40
47.36387217044717
 40
47.82875041691796
 40
48.21396582445992
 40
48.60163618330976
 40
48.95695338980147
 40
49.3122705962889
 40
49.3122705962889
 40
49.3122705962889
 40
49.3122705962889
 10
764.8667194890775
 20
1472.367580142243
 30
0.0
 10
764.8276377569306
 20
1472.243811520319
 30
0.0
 10
764.7497217806047
 20
1471.997058050448
 30
0.0
 10
764.5209725239683
 20
1471.648836374667
 30
0.0
 10
764.2280783404898
 20
1471.322464093538
 30
0.0
 10
763.8490613797569
 20
1470.998941148266
 30
0.0
 10
763.4099645106223
 20
1470.701398534497
 30
0.0
 10
762.8886609896289
 20
1470.408945715675
 30
0.0
 10
762.3155038163661
 20
1470.143212744116
 30
0.0
 10
761.6661868354488
 20
1469.888734152652
 30
0.0
 10
760.9736182015344
 20
1469.661744806067
 30
0.0
 10
760.2153449580994
 20
1469.452223980981
 30
0.0
 10
759.4227202015584
 20
1469.271034384303
 30
0.0
 10
758.5781774466057
 20
1469.112446854702
 30
0.0
 10
757.7086448634484
 20
1468.982997042855
 30
0.0
 10
756.8032884913772
 20
1468.879882691771
 30
0.0
 10
755.8827379298917
 20
1468.806525760908
 30
0.0
 10
754.9439188634725
 20
1468.761760911377
 30
0.0
 10
754.0000000044085
 20
1468.747087749949
 30
0.0
 10
753.0560811452572
 20
1468.761760911373
 30
0.0
 10
752.1172620789577
 20
1468.806525760948
 30
0.0
 10
751.1967115168052
 20
1468.879882691642
 30
0.0
 10
750.291355146987
 20
1468.982997043327
 30
0.0
 10
749.4218225556466
 20
1469.11244685299
 30
0.0
 10
748.5772798292949
 20
1469.271034390221
 30
0.0
 10
747.784654970878
 20
1469.452223959726
 30
0.0
 10
747.0263820734526
 20
1469.661744877104
 30
0.0
 10
746.3338122281991
 20
1469.888733900585
 30
0.0
 10
745.6844992348274
 20
1470.143213555659
 30
0.0
 10
745.111328353045
 20
1470.408942870694
 30
0.0
 10
744.5900685258796
 20
1470.701407344136
 30
0.0
 10
744.1508238189224
 20
1470.998910524565
 30
0.0
 10
743.7722667874525
 20
1471.322556148499
 30
0.0
 10
743.4778189192114
 20
1471.648514009446
 30
0.0
 10
743.2539482524193
 20
1471.998036969849
 30
0.0
 10
743.1231500090829
 20
1472.353678870531
 30
0.0
 10
743.0711902997907
 20
1472.720000334859
 30
0.0
 10
743.123150009084
 20
1473.086321799192
 30
0.0
 10
743.2539482524171
 20
1473.441963699885
 30
0.0
 10
743.4778189192085
 20
1473.791486660296
 30
0.0
 10
743.7722667874502
 20
1474.117444521239
 30
0.0
 10
744.150823818924
 20
1474.441090145159
 30
0.0
 10
744.5900685258854
 20
1474.738593325576
 30
0.0
 10
745.1113283530445
 20
1475.031057799032
 30
0.0
 10
745.6844992348227
 20
1475.296787114085
 30
0.0
 10
746.3338122281983
 20
1475.551266769155
 30
0.0
 10
747.0263820734541
 20
1475.778255792619
 30
0.0
 10
747.7846549708783
 20
1475.987776709992
 30
0.0
 10
748.5772798292952
 20
1476.168966279493
 30
0.0
 10
749.4218225556467
 20
1476.32755381672
 30
0.0
 10
750.2913551469871
 20
1476.45700362638
 30
0.0
 10
751.1967115168055
 20
1476.560117978063
 30
0.0
 10
752.1172620789571
 20
1476.633474908756
 30
0.0
 10
753.0560811452599
 20
1476.678239758336
 30
0.0
 10
754.0000000043989
 20
1476.692912919759
 30
0.0
 10
754.943918863507
 20
1476.678239758338
 30
0.0
 10
755.8827379297654
 20
1476.63347490875
 30
0.0
 10
756.8032884918381
 20
1476.56011797807
 30
0.0
 10
757.7086448618035
 20
1476.457003626349
 30
0.0
 10
758.5781774525813
 20
1476.327553816838
 30
0.0
 10
759.4227201808949
 20
1476.168966279085
 30
0.0
 10
760.2153450323152
 20
1475.987776711449
 30
0.0
 10
760.9736179534975
 20
1475.778255787734
 30
0.0
 10
761.6661877155736
 20
1475.551266786454
 30
0.0
 10
762.3155009827642
 20
1475.296787058349
 30
0.0
 10
762.8886709232168
 20
1475.031057994385
 30
0.0
 10
763.409933750727
 20
1474.738592720641
 30
0.0
 10
763.8491683060345
 20
1474.441092248013
 30
0.0
 10
764.2277569197014
 20
1474.117438200054
 30
0.0
 10
764.5220981002866
 20
1473.791508796311
 30
0.0
 10
764.7463037676686
 20
1473.441896479935
 30
0.0
 10
764.8759303982683
 20
1473.086567087917
 30
0.0
 10
764.9319251701595
 20
1472.719169336159
 30
0.0
 10
764.8884547161047
 20
1472.484776540214
 30
0.0
 10
764.8667194890775
 20
1472.367580142243
 30
0.0
 11
764.8667194890775
 21
1472.367580142243
 31
0.0
 11
764.7331410627054
 21
1472.003650051246
 31
0.0
 11
764.5290140526031
 21
1471.67696507462
 31
0.0
 11
764.2203781753776
 21
1471.329322040267
 31
0.0
 11
763.8699576410872
 21
1471.026931715068
 31
0.0
 11
763.4056325534993
 21
1470.708027449577
 31
0.0
 11
762.9156943766593
 21
1470.431703796788
 31
0.0
 11
762.3127755152497
 21
1470.14936224499
 31
0.0
 11
761.6936211271454
 21
1469.905801367638
 31
0.0
 11
760.9718499217832
 21
1469.667448969201
 31
0.0
 11
760.2395480576168
 21
1469.464512418323
 31
0.0
 11
759.4215811378607
 21
1469.276387096975
 31
0.0
 11
758.5968547040937
 21
1469.121153142297
 31
0.0
 11
757.7079610513487
 21
1468.988102580448
 31
0.0
 11
756.8150175040658
 21
1468.88622430238
 31
0.0
 11
755.8824163150529
 21
1468.811486127911
 31
0.0
 11
754.947912795981
 21
1468.766929483478
 31
0.0
 11
754.0000000044176
 21
1468.75200033486
 31
0.0
 11
753.052087212797
 21
1468.766929483482
 31
0.0
 11
752.1175836936411
 21
1468.811486127917
 31
0.0
 11
751.1849825046029
 21
1468.886224302384
 31
0.0
 11
750.2920389573218
 21
1468.988102580449
 31
0.0
 11
749.4031453045748
 21
1469.121153142297
 31
0.0
 11
748.5784188708052
 21
1469.276387096975
 31
0.0
 11
747.7604519510481
 21
1469.464512418323
 31
0.0
 11
747.0281500868813
 21
1469.667448969201
 31
0.0
 11
746.3063788815177
 21
1469.905801367638
 31
0.0
 11
745.6872244934142
 21
1470.149362244989
 31
0.0
 11
745.08430563201
 21
1470.431703796788
 31
0.0
 11
744.5943674551746
 21
1470.708027449576
 31
0.0
 11
744.1300423675867
 21
1471.026931715068
 31
0.0
 11
743.7796218332951
 21
1471.329322040267
 31
0.0
 11
743.4709859560693
 21
1471.67696507462
 31
0.0
 11
743.266858945967
 21
1472.003650051244
 31
0.0
 11
743.1332805195948
 21
1472.367580142237
 31
0.0
 11
743.0880000043732
 21
1472.720000334856
 31
0.0
 11
743.1332805195948
 21
1473.072420527484
 31
0.0
 11
743.2668589459671
 21
1473.436350618493
 31
0.0
 11
743.4709859560692
 21
1473.763035595123
 31
0.0
 11
743.7796218332951
 21
1474.110678629471
 31
0.0
 11
744.1300423675866
 21
1474.413068954656
 31
0.0
 11
744.5943674551745
 21
1474.731973220137
 31
0.0
 11
745.08430563201
 21
1475.008296872938
 31
0.0
 11
745.6872244934142
 21
1475.290638424753
 31
0.0
 11
746.3063788815177
 21
1475.5341993021
 31
0.0
 11
747.0281500868814
 21
1475.772551700524
 31
0.0
 11
747.7604519510481
 21
1475.975488251395
 31
0.0
 11
748.5784188708053
 21
1476.163613572739
 31
0.0
 11
749.4031453045748
 21
1476.318847527414
 31
0.0
 11
750.2920389573219
 21
1476.451898089258
 31
0.0
 11
751.1849825046029
 21
1476.553776367321
 31
0.0
 11
752.1175836936412
 21
1476.628514541788
 31
0.0
 11
753.052087212797
 21
1476.673071186226
 31
0.0
 11
754.0000000044176
 21
1476.688000334849
 31
0.0
 11
754.947912795981
 21
1476.673071186226
 31
0.0
 11
755.8824163150529
 21
1476.628514541788
 31
0.0
 11
756.8150175040657
 21
1476.553776367321
 31
0.0
 11
757.7079610513489
 21
1476.451898089259
 31
0.0
 11
758.5968547040939
 21
1476.318847527414
 31
0.0
 11
759.4215811378607
 21
1476.163613572738
 31
0.0
 11
760.2395480576168
 21
1475.975488251392
 31
0.0
 11
760.9718499217831
 21
1475.772551700517
 31
0.0
 11
761.6936211271454
 21
1475.534199302091
 31
0.0
 11
762.3127755152499
 21
1475.290638424744
 31
0.0
 11
762.9156943766594
 21
1475.008296872933
 31
0.0
 11
763.4056325534992
 21
1474.731973220136
 31
0.0
 11
763.8699576410872
 21
1474.413068954656
 31
0.0
 11
764.2203781753776
 21
1474.110678629471
 31
0.0
 11
764.5290140526031
 21
1473.763035595123
 31
0.0
 11
764.7331410627053
 21
1473.436350618495
 31
0.0
 11
764.8667194890775
 21
1473.07242052749
 31
0.0
 11
764.9120000042992
 21
1472.720000334864
 31
0.0
 11
764.8667194890775
 21
1472.367580142243
 31
0.0
  0
SPLINE
  5
10D
330
46
100
AcDbEntity
  8
0
  6
Continuous
 62
     7
100
AcDbSpline
210
0.0
220
0.0
230
1.0
 70
     8
 71
     3
 72
    11
 73
     7
 74
     5
 42
0.0000000001
 43
0.0000000001
 44
0.00000001
 40
0.0
 40
0.0
 40
0.0
 40
0.0
 40
0.2256699926753358
 40
0.4511783068946138
 40
0.6597811556154684
 40
0.8620666496856471
 40
0.8620666496856471
 40
0.8620666496856471
 40
0.8620666496856471
 10
721.2867860686351
 20
1474.229913731784
 30
0.0
 10
721.2285349946966
 20
1474.278514645259
 30
0.0
 10
721.1120745800763
 20
1474.375681652691
 30
0.0
 10
720.9034577301654
 20
1474.45093103915
 30
0.0
 10
720.6784717816802
 20
1474.463811643277
 30
0.0
 10
720.5677998083347
 20
1474.375729741815
 30
0.0
 10
720.5133146052359
 20
1474.332365914954
 30
0.0
 11
721.2867860686351
 21
1474.229913731784
 31
0.0
 11
721.1054786279204
 21
1474.36428098053
 31
0.0
 11
720.893738173328
 21
1474.44186950849
 31
0.0
 11
720.6851538005392
 21
1474.439093193888
 31
0.0
 11
720.5133146052359
 21
1474.332365914954
 31
0.0
  0
SPLINE
  5
10E
330
46
100
AcDbEntity
  8
0
  6
Continuous
 62
     3
100
AcDbSpline
210
0.0
220
0.0
230
1.0
 70
    24
 71
     3
 72
    11
 73
     7
 74
     5
 42
0.0000000001
 43
0.0000000001
 44
0.00000001
 40
0.0
 40
0.0
 40
0.0
 40
0.0
 40
0.0746081224408953
 40
0.1588985440018555
 40
0.2498437938534619
 40
0.3441772780808905
 40
0.3441772780808905
 40
0.3441772780808905
 40
0.3441772780808905
 10
721.0434159813736
 20
1473.986543644523
 30
0.0
 10
721.0610012844767
 20
1474.004128947626
 30
0.0
 10
721.0984540304714
 20
1474.041581693621
 30
0.0
 10
721.157342777429
 20
1474.100470440578
 30
0.0
 10
721.2208808367461
 20
1474.164008499895
 30
0.0
 10
721.2645514531716
 20
1474.20767911632
 30
0.0
 10
721.2867860686351
 20
1474.229913731784
 30
0.0
 11
721.0434159813736
 21
1473.986543644523
 31
0.0
 11
721.0961718906832
 21
1474.039299553833
 31
0.0
 11
721.1557742193582
 21
1474.098901882507
 31
0.0
 11
721.2200822222451
 21
1474.163209885394
 31
0.0
 11
721.2867860686351
 21
1474.229913731784
 31
0.0
  0
SPLINE
  5
10F
330
46
100
AcDbEntity
  8
0
  6
Continuous
 62
     3
100
AcDbSpline
210
0.0
220
0.0
230
1.0
 70
    24
 71
     3
 72
    11
 73
     7
 74
     5
 42
0.0000000001
 43
0.0000000001
 44
0.00000001
 40
0.0
 40
0.0
 40
0.0
 40
0.0
 40
0.0622460454885518
 40
0.1098943028144622
 40
0.1494820909862624
 40
0.1551374892964506
 40
0.1551374892964506
 40
0.1551374892964506
 40
0.1551374892964506
 10
721.9814567587662
 20
1474.924584421915
 30
0.0
 10
721.9961282923884
 20
1474.939255955537
 30
0.0
 10
722.0220306279662
 20
1474.965158291115
 30
0.0
 10
722.0572638947003
 20
1475.000391557849
 30
0.0
 10
722.0791586179771
 20
1475.022286281126
 30
0.0
 10
722.0898225392984
 20
1475.032950202448
 30
0.0
 10
722.0911555294637
 20
1475.034283192613
 30
0.0
 11
721.9814567587662
 21
1474.924584421915
 31
0.0
 11
722.0254713596329
 21
1474.968599022782
 31
0.0
 11
722.0591637654999
 21
1475.002291428649
 31
0.0
 11
722.0871565589681
 21
1475.030284222118
 31
0.0
 11
722.0911555294637
 21
1475.034283192613
 31
0.0
  0
SPLINE
  5
110
330
46
100
AcDbEntity
  8
0
  6
Continuous
 62
     3
100
AcDbSpline
210
0.0
220
0.0
230
1.0
 70
     8
 71
     3
 72
    11
 73
     7
 74
     5
 42
0.0000000001
 43
0.0000000001
 44
0.00000001
 40
0.0
 40
0.0
 40
0.0
 40
0.0
 40
0.0643237494452278
 40
0.1345398151656676
 40
0.2043978370449027
 40
0.272425472191305
 40
0.272425472191305
 40
0.272425472191305
 40
0.272425472191305
 10
721.8344463308514
 20
1475.268437236641
 30
0.0
 10
721.8188468570363
 20
1475.283147219887
 30
0.0
 10
721.7862189343501
 20
1475.313914680491
 30
0.0
 10
721.7366760476674
 20
1475.360686003815
 30
0.0
 10
721.6860344214272
 20
1475.408091728599
 30
0.0
 10
721.6522851291153
 20
1475.439292501567
 30
0.0
 10
721.6356344883352
 20
1475.454685798053
 30
0.0
 11
721.8344463308514
 21
1475.268437236641
 31
0.0
 11
721.787651919697
 21
1475.312571439108
 31
0.0
 11
721.7365552710252
 21
1475.360731883248
 31
0.0
 11
721.6855390023578
 21
1475.408454870918
 31
0.0
 11
721.6356344883352
 21
1475.454685798053
 31
0.0
  0
SPLINE
  5
111
330
46
100
AcDbEntity
  8
0
  6
Continuous
 62
     3
100
AcDbSpline
210
0.0
220
0.0
230
1.0
 70
     8
 71
     3
 72
    11
 73
     7
 74
     5
 42
0.0000000001
 43
0.0000000001
 44
0.00000001
 40
0.0
 40
0.0
 40
0.0
 40
0.0
 40
0.109231018110278
 40
0.1961344014965228
 40
0.2936866857659169
 40
0.3921693444208533
 40
0.3921693444208533
 40
0.3921693444208533
 40
0.3921693444208533
 10
721.8344463308514
 20
1475.268437236641
 30
0.0
 10
721.831137320642
 20
1475.231882989577
 30
0.0
 10
721.8251956865885
 20
1475.166246456164
 30
0.0
 10
721.8545372317278
 20
1475.070137210148
 30
0.0
 10
721.9129932026126
 20
1474.994784232783
 30
0.0
 10
721.9585634817777
 20
1474.948058278738
 30
0.0
 10
721.9814567587662
 20
1474.924584421915
 30
0.0
 11
721.8344463308514
 21
1475.268437236641
 31
0.0
 11
721.8324398187457
 21
1475.159224649333
 31
0.0
 11
721.8578417794258
 21
1475.076116656711
 31
0.0
 11
721.9140561914772
 21
1474.996389697382
 31
0.0
 11
721.9814567587662
 21
1474.924584421915
 31
0.0
  0
SPLINE
  5
112
330
46
100
AcDbEntity
  8
0
  6
Continuous
 62
     3
100
AcDbSpline
210
0.0
220
0.0
230
1.0
 70
    24
 71
     3
 72
    11
 73
     7
 74
     5
 42
0.0000000001
 43
0.0000000001
 44
0.00000001
 40
0.0
 40
0.0
 40
0.0
 40
0.0
 40
0.0943334842263836
 40
0.1852787340790351
 40
0.269569155640156
 40
0.3441772780807298
 40
0.3441772780807298
 40
0.3441772780807298
 40
0.3441772780807298
 10
721.7380866715047
 20
1474.681214334654
 30
0.0
 10
721.760321286968
 20
1474.703448950117
 30
0.0
 10
721.8039919033941
 20
1474.747119566542
 30
0.0
 10
721.8675299627105
 20
1474.81065762586
 30
0.0
 10
721.9264187096682
 20
1474.869546372818
 30
0.0
 10
721.9638714556629
 20
1474.906999118812
 30
0.0
 10
721.9814567587662
 20
1474.924584421915
 30
0.0
 11
721.7380866715047
 21
1474.681214334654
 31
0.0
 11
721.8047905178944
 21
1474.747918181043
 31
0.0
 11
721.8690985207816
 21
1474.812226183931
 31
0.0
 11
721.9287008494566
 21
1474.871828512606
 31
0.0
 11
721.9814567587662
 21
1474.924584421915
 31
0.0
  0
SPLINE
  5
113
330
46
100
AcDbEntity
  8
0
  6
Continuous
 62
     7
100
AcDbSpline
210
0.0
220
0.0
230
1.0
 70
     8
 71
     3
 72
    11
 73
     7
 74
     5
 42
0.0000000001
 43
0.0000000001
 44
0.00000001
 40
0.0
 40
0.0
 40
0.0
 40
0.0
 40
0.0676060304718932
 40
0.2074512642187804
 40
0.3971265972819354
 40
0.6121430348060873
 40
0.6121430348060873
 40
0.6121430348060873
 40
0.6121430348060873
 10
722.14613919912
 20
1475.781815809143
 30
0.0
 10
722.1237456956453
 20
1475.778022399838
 30
0.0
 10
722.0550305148598
 20
1475.766382202203
 30
0.0
 10
721.9441623124488
 20
1475.687929288001
 30
0.0
 10
721.7946170755204
 20
1475.58738415608
 30
0.0
 10
721.6907957224087
 20
1475.500727350892
 30
0.0
 10
721.6356344883352
 20
1475.454685798053
 30
0.0
 11
722.14613919912
 21
1475.781815809143
 31
0.0
 11
722.0801056620711
 21
1475.767319349541
 31
0.0
 11
721.9583435816936
 21
1475.698539372921
 31
0.0
 11
721.8031841069221
 21
1475.58944185067
 31
0.0
 11
721.6356344883352
 21
1475.454685798053
 31
0.0
  0
SPLINE
  5
114
330
46
100
AcDbEntity
  8
0
  6
Continuous
 62
     7
100
AcDbSpline
210
0.0
220
0.0
230
1.0
 70
     8
 71
     3
 72
    11
 73
     7
 74
     5
 42
0.0000000001
 43
0.0000000001
 44
0.00000001
 40
0.0
 40
0.0
 40
0.0
 40
0.0
 40
0.2022854940707683
 40
0.4108883427912789
 40
0.6363966570095253
 40
0.8620666496859947
 40
0.8620666496859947
 40
0.8620666496859947
 40
0.8620666496859947
 10
721.6356344883352
 20
1475.454685798053
 30
0.0
 10
721.5922706614739
 20
1475.400200594954
 30
0.0
 10
721.504188760011
 20
1475.289528621609
 30
0.0
 10
721.5170693641389
 20
1475.064542673124
 30
0.0
 10
721.5923187505969
 20
1474.855925823213
 30
0.0
 10
721.6894857580289
 20
1474.739465408592
 30
0.0
 10
721.7380866715047
 20
1474.681214334654
 30
0.0
 11
721.6356344883352
 21
1475.454685798053
 31
0.0
 11
721.5289072094002
 21
1475.282846602749
 31
0.0
 11
721.5261308947987
 21
1475.074262229961
 31
0.0
 11
721.6037194227575
 21
1474.862521775369
 31
0.0
 11
721.7380866715047
 21
1474.681214334654
 31
0.0
  0
SPLINE
  5
115
330
46
100
AcDbEntity
  8
0
  6
Continuous
 62
     3
100
AcDbSpline
210
0.0
220
0.0
230
1.0
 70
    24
 71
     3
 72
    11
 73
     7
 74
     5
 42
0.0000000001
 43
0.0000000001
 44
0.00000001
 40
0.0
 40
0.0
 40
0.0
 40
0.0
 40
0.0056553983102687
 40
0.0452431864819885
 40
0.0928914438075773
 40
0.1551374892964506
 40
0.1551374892964506
 40
0.1551374892964506
 40
0.1551374892964506
 10
720.9337172106761
 20
1473.876844873825
 30
0.0
 10
720.9350502008413
 20
1473.87817786399
 30
0.0
 10
720.9457141221624
 20
1473.888841785311
 30
0.0
 10
720.9676088454396
 20
1473.910736508589
 30
0.0
 10
721.0028421121735
 20
1473.945969775322
 30
0.0
 10
721.0287444477515
 20
1473.971872110901
 30
0.0
 10
721.0434159813736
 20
1473.986543644523
 30
0.0
 11
720.9337172106761
 21
1473.876844873825
 31
0.0
 11
720.9377161811716
 21
1473.88084384432
 31
0.0
 11
720.9657089746399
 21
1473.908836637789
 31
0.0
 11
720.9994013805067
 21
1473.942529043655
 31
0.0
 11
721.0434159813736
 21
1473.986543644523
 31
0.0
  0
SPLINE
  5
116
330
46
100
AcDbEntity
  8
0
  6
Continuous
 62
     3
100
AcDbSpline
210
0.0
220
0.0
230
1.0
 70
     8
 71
     3
 72
    11
 73
     7
 74
     5
 42
0.0000000001
 43
0.0000000001
 44
0.00000001
 40
0.0
 40
0.0
 40
0.0
 40
0.0
 40
0.0727662873739117
 40
0.1358139081003337
 40
0.1721259534029543
 40
0.1773133884461367
 40
0.1773133884461367
 40
0.1773133884461367
 40
0.1773133884461367
 10
720.697914650082
 20
1474.108719383371
 30
0.0
 10
720.6802955914097
 20
1474.092133202809
 30
0.0
 10
720.6474106758576
 20
1474.061176092257
 30
0.0
 10
720.5985744600822
 20
1474.0286507042
 30
0.0
 10
720.5642462285255
 20
1474.021251194104
 30
0.0
 10
720.5509582228026
 20
1474.017417764425
 30
0.0
 10
720.5492972220873
 20
1474.016938585716
 30
0.0
 11
720.697914650082
 21
1474.108719383371
 31
0.0
 11
720.6434359576556
 21
1474.060480346796
 31
0.0
 11
720.5892035423096
 21
1474.028326846131
 31
0.0
 11
720.554285512115
 21
1474.018362118268
 31
0.0
 11
720.5492972220873
 21
1474.016938585716
 31
0.0
  0
SPLINE
  5
117
330
46
100
AcDbEntity
  8
0
  6
Continuous
 62
     7
100
AcDbSpline
210
0.0
220
0.0
230
1.0
 70
     8
 71
     3
 72
    11
 73
     7
 74
     5
 42
0.0000000001
 43
0.0000000001
 44
0.00000001
 40
0.0
 40
0.0
 40
0.0
 40
0.0
 40
0.215016437524435
 40
0.40469177058801
 40
0.5445370043341914
 40
0.6121430348063933
 40
0.6121430348063933
 40
0.6121430348063933
 40
0.6121430348063933
 10
720.5133146052359
 20
1474.332365914954
 30
0.0
 10
720.4672730523974
 20
1474.27720468088
 30
0.0
 10
720.380616247209
 20
1474.173383327768
 30
0.0
 10
720.2800711152875
 20
1474.02383809084
 30
0.0
 10
720.2016182010856
 20
1473.912969888429
 30
0.0
 10
720.189978003451
 20
1473.844254707644
 30
0.0
 10
720.186184594146
 20
1473.821861204169
 30
0.0
 11
720.5133146052359
 21
1474.332365914954
 31
0.0
 11
720.3785585526189
 21
1474.164816296367
 31
0.0
 11
720.2694610303676
 21
1474.009656821595
 31
0.0
 11
720.2006810537476
 21
1473.887894741218
 31
0.0
 11
720.186184594146
 21
1473.821861204169
 31
0.0
  0
SPLINE
  5
118
330
46
100
AcDbEntity
  8
0
  6
Continuous
 62
     3
100
AcDbSpline
210
0.0
220
0.0
230
1.0
 70
     8
 71
     3
 72
    11
 73
     7
 74
     5
 42
0.0000000001
 43
0.0000000001
 44
0.00000001
 40
0.0
 40
0.0
 40
0.0
 40
0.0
 40
0.0726507655388024
 40
0.1378054242743416
 40
0.2144134291123741
 40
0.2900323708852477
 40
0.2900323708852477
 40
0.2900323708852477
 40
0.2900323708852477
 10
720.697914650082
 20
1474.108719383371
 30
0.0
 10
720.6822930682793
 20
1474.127226838067
 30
0.0
 10
720.6526617396592
 20
1474.162332148076
 30
0.0
 10
720.6083247783424
 20
1474.218390447374
 30
0.0
 10
720.5636555195983
 20
1474.275473435075
 30
0.0
 10
720.5300220678942
 20
1474.313484077087
 30
0.0
 10
720.5133146052359
 20
1474.332365914954
 30
0.0
 11
720.697914650082
 21
1474.108719383371
 31
0.0
 11
720.6513655220334
 21
1474.164498522942
 31
0.0
 11
720.610731904522
 21
1474.215430229009
 31
0.0
 11
720.5628564419696
 21
1474.275235968622
 31
0.0
 11
720.5133146052359
 21
1474.332365914954
 31
0.0
  0
SPLINE
  5
119
330
46
100
AcDbEntity
  8
0
  6
Continuous
 62
     3
100
AcDbSpline
210
0.0
220
0.0
230
1.0
 70
     8
 71
     3
 72
    11
 73
     7
 74
     5
 42
0.0000000001
 43
0.0000000001
 44
0.00000001
 40
0.0
 40
0.0
 40
0.0
 40
0.0
 40
0.0873868471429631
 40
0.1717251928798033
 40
0.2479073811711841
 40
0.389165970367398
 40
0.389165970367398
 40
0.389165970367398
 40
0.389165970367398
 10
720.697914650082
 20
1474.108719383371
 30
0.0
 10
720.7266407131319
 20
1474.112695191414
 30
0.0
 10
720.783090726826
 20
1474.120508110924
 30
0.0
 10
720.8681062342354
 20
1474.121173354009
 30
0.0
 10
720.9579894827932
 20
1474.070167257756
 30
0.0
 10
721.0097743644926
 20
1474.019475271188
 30
0.0
 10
721.0434159813736
 20
1473.986543644523
 30
0.0
 11
720.697914650082
 21
1474.108719383371
 31
0.0
 11
720.784724726072
 21
1474.118742943627
 31
0.0
 11
720.868905312596
 21
1474.113586839079
 31
0.0
 11
720.93701369303
 21
1474.079455118825
 31
0.0
 11
721.0434159813736
 21
1473.986543644523
 31
0.0
  0
SPLINE
  5
11A
330
46
100
AcDbEntity
  8
0
  6
Continuous
 62
     3
100
AcDbSpline
210
0.0
220
0.0
230
1.0
 70
     8
 71
     3
 72
    10
 73
     6
 74
     4
 42
0.0000000001
 43
0.0000000001
 44
0.00000001
 40
0.0
 40
0.0
 40
0.0
 40
0.0
 40
0.1026144734768518
 40
0.1612289727805874
 40
0.1911090453223782
 40
0.1911090453223782
 40
0.1911090453223782
 40
0.1911090453223782
 10
721.8344463308514
 20
1475.268437236641
 30
0.0
 10
721.8594587092734
 20
1475.292418891529
 30
0.0
 10
721.8987584293137
 20
1475.330099127584
 30
0.0
 10
721.9223619928711
 20
1475.3912020609
 30
0.0
 10
721.9438174212037
 20
1475.411761361238
 30
0.0
 10
721.951061817573
 20
1475.418703181201
 30
0.0
 11
721.8344463308514
 21
1475.268437236641
 31
0.0
 11
721.901630520192
 21
1475.346000210214
 31
0.0
 11
721.930528617512
 21
1475.396995891403
 31
0.0
 11
721.951061817573
 21
1475.418703181201
 31
0.0
  0
SPLINE
  5
11B
330
46
100
AcDbEntity
  8
0
  6
Continuous
 62
     7
100
AcDbSpline
210
0.0
220
0.0
230
1.0
 70
     8
 71
     3
 72
    11
 73
     7
 74
     5
 42
0.0000000001
 43
0.0000000001
 44
0.00000001
 40
0.0
 40
0.0
 40
0.0
 40
0.0
 40
0.215016437555292
 40
0.404691770588045
 40
0.544537004334648
 40
0.6121430348065303
 40
0.6121430348065303
 40
0.6121430348065303
 40
0.6121430348065303
 10
735.9026845716566
 20
1461.187635714731
 30
0.0
 10
735.9487261245018
 20
1461.242796948813
 30
0.0
 10
736.0353829296904
 20
1461.346618301924
 30
0.0
 10
736.1359280616105
 20
1461.496163538854
 30
0.0
 10
736.2143809758076
 20
1461.607031741255
 30
0.0
 10
736.2260211734417
 20
1461.675746922041
 30
0.0
 10
736.2298145827465
 20
1461.698140425516
 30
0.0
 11
735.9026845716566
 21
1461.187635714731
 31
0.0
 11
736.0374406242926
 21
1461.355185333343
 31
0.0
 11
736.1465381465249
 21
1461.51034480809
 31
0.0
 11
736.2153181231453
 21
1461.632106888467
 31
0.0
 11
736.2298145827465
 21
1461.698140425516
 31
0.0
  0
SPLINE
  5
11C
330
46
100
AcDbEntity
  8
0
  6
Continuous
 62
     7
100
AcDbSpline
210
0.0
220
0.0
230
1.0
 70
     8
 71
     3
 72
    11
 73
     7
 74
     5
 42
0.0000000001
 43
0.0000000001
 44
0.00000001
 40
0.0
 40
0.0
 40
0.0
 40
0.0
 40
0.0676060304727192
 40
0.2074512642189135
 40
0.3971265972628061
 40
0.612143034806239
 40
0.612143034806239
 40
0.612143034806239
 40
0.612143034806239
 10
734.2698599777725
 20
1459.738185820542
 30
0.0
 10
734.2922534812475
 20
1459.741979229847
 30
0.0
 10
734.3609686620334
 20
1459.753619427482
 30
0.0
 10
734.4718368644378
 20
1459.83207234168
 30
0.0
 10
734.6213821013678
 20
1459.932617473601
 30
0.0
 10
734.7252034544791
 20
1460.01927427879
 30
0.0
 10
734.7803646885573
 20
1460.065315831632
 30
0.0
 11
734.2698599777725
 21
1459.738185820542
 31
0.0
 11
734.3358935148221
 21
1459.752682280144
 31
0.0
 11
734.4576555951988
 21
1459.821462256764
 31
0.0
 11
734.6128150699551
 21
1459.930559779003
 31
0.0
 11
734.7803646885573
 21
1460.065315831632
 31
0.0
  0
SPLINE
  5
11D
330
46
100
AcDbEntity
  8
0
  6
Continuous
 62
     3
100
AcDbSpline
210
0.0
220
0.0
230
1.0
 70
    24
 71
     3
 72
    11
 73
     7
 74
     5
 42
0.0000000001
 43
0.0000000001
 44
0.00000001
 40
0.0
 40
0.0
 40
0.0
 40
0.0
 40
0.0943334842272679
 40
0.1852787340791154
 40
0.2926979154380627
 40
0.3215359145076921
 40
0.3215359145076921
 40
0.3215359145076921
 40
0.3215359145076921
 10
734.6779125053879
 20
1460.838787295031
 30
0.0
 10
734.6556778899244
 20
1460.816552679568
 30
0.0
 10
734.6120072734984
 20
1460.772882063142
 30
0.0
 10
734.5430177132172
 20
1460.70389250286
 30
0.0
 10
734.4894655868329
 20
1460.650340376476
 30
0.0
 10
734.4573494614101
 20
1460.618224251054
 30
0.0
 10
734.450552279844
 20
1460.611427069488
 30
0.0
 11
734.6779125053879
 21
1460.838787295031
 31
0.0
 11
734.6112086589976
 21
1460.772083448641
 31
0.0
 11
734.5469006561109
 21
1460.707775445754
 31
0.0
 11
734.4709438245422
 21
1460.631818614186
 31
0.0
 11
734.450552279844
 21
1460.611427069488
 31
0.0
  0
SPLINE
  5
11E
330
46
100
AcDbEntity
  8
0
  6
Continuous
 62
     3
100
AcDbSpline
210
0.0
220
0.0
230
1.0
 70
     8
 71
     3
 72
    11
 73
     7
 74
     5
 42
0.0000000001
 43
0.0000000001
 44
0.00000001
 40
0.0
 40
0.0
 40
0.0
 40
0.0
 40
0.1092310157241573
 40
0.1961344013122273
 40
0.2942086906423165
 40
0.3952766148482495
 40
0.3952766148482495
 40
0.3952766148482495
 40
0.3952766148482495
 10
734.5815528460411
 20
1460.251564393044
 30
0.0
 10
734.5848381323426
 20
1460.288093355254
 30
0.0
 10
734.5907371680479
 20
1460.353684488745
 30
0.0
 10
734.5616237837392
 20
1460.450263307096
 30
0.0
 10
734.50128732176
 20
1460.525166589553
 30
0.0
 10
734.4676326003471
 20
1460.582386852146
 30
0.0
 10
734.450552279844
 20
1460.611427069488
 30
0.0
 11
734.5815528460411
 21
1460.251564393044
 31
0.0
 11
734.5835593587155
 21
1460.360776977955
 31
0.0
 11
734.5581573978777
 21
1460.443884972831
 31
0.0
 11
734.5039442183233
 21
1460.525613164969
 31
0.0
 11
734.450552279844
 21
1460.611427069488
 31
0.0
  0
SPLINE
  5
11F
330
46
100
AcDbEntity
  8
0
  6
Continuous
 62
     3
100
AcDbSpline
210
0.0
220
0.0
230
1.0
 70
    24
 71
     3
 72
    11
 73
     7
 74
     5
 42
0.0000000001
 43
0.0000000001
 44
0.00000001
 40
0.0
 40
0.0
 40
0.0
 40
0.0
 40
0.0541768708539571
 40
0.1325356663874999
 40
0.1721234545594609
 40
0.1777788528695688
 40
0.1777788528695688
 40
0.1777788528695688
 40
0.1777788528695688
 10
734.450552279844
 20
1460.611427069488
 30
0.0
 10
734.4377826689224
 20
1460.598657458567
 30
0.0
 10
734.4065437127717
 20
1460.567418502417
 30
0.0
 10
734.3659738254657
 20
1460.526848615109
 30
0.0
 10
734.3368405589154
 20
1460.497715348559
 30
0.0
 10
734.326176637594
 20
1460.487051427237
 30
0.0
 10
734.3248436474288
 20
1460.485718437072
 30
0.0
 11
734.450552279844
 21
1460.611427069488
 31
0.0
 11
734.4122434470796
 21
1460.573118236724
 31
0.0
 11
734.3568354113927
 21
1460.517710201036
 31
0.0
 11
734.3288426179242
 21
1460.489717407567
 31
0.0
 11
734.3248436474288
 21
1460.485718437072
 31
0.0
  0
SPLINE
  5
120
330
46
100
AcDbEntity
  8
0
  6
Continuous
 62
     7
100
AcDbSpline
210
0.0
220
0.0
230
1.0
 70
     8
 71
     3
 72
    12
 73
     8
 74
     6
 42
0.0000000001
 43
0.0000000001
 44
0.00000001
 40
0.0
 40
0.0
 40
0.0
 40
0.0
 40
0.1769015107636805
 40
0.3213642626566011
 40
0.4128454655106918
 40
0.6383537797298133
 40
0.8640237724050781
 40
0.8640237724050781
 40
0.8640237724050781
 40
0.8640237724050781
 10
734.7803646885573
 20
1460.065315831632
 30
0.0
 10
734.8194993032506
 20
1460.111360090647
 30
0.0
 10
734.8905923455937
 20
1460.19500538731
 30
0.0
 10
734.9045996250618
 20
1460.337907982758
 30
0.0
 10
734.8867502669201
 20
1460.490180903612
 30
0.0
 10
734.8232885351358
 20
1460.664844300257
 30
0.0
 10
734.7263827572735
 20
1460.780792446878
 30
0.0
 10
734.6779125053879
 20
1460.838787295031
 30
0.0
 11
734.7803646885573
 21
1460.065315831632
 31
0.0
 11
734.8795300232171
 21
1460.211809452354
 31
0.0
 11
734.8999748345175
 21
1460.354818180673
 31
0.0
 11
734.8898682820937
 21
1460.445739399724
 31
0.0
 11
734.8122797541342
 21
1460.657479854317
 31
0.0
 11
734.6779125053879
 21
1460.838787295031
 31
0.0
  0
SPLINE
  5
121
330
46
100
AcDbEntity
  8
0
  6
Continuous
 62
     3
100
AcDbSpline
210
0.0
220
0.0
230
1.0
 70
     8
 71
     3
 72
    11
 73
     7
 74
     5
 42
0.0000000001
 43
0.0000000001
 44
0.00000001
 40
0.0
 40
0.0
 40
0.0
 40
0.0
 40
0.0643237494443462
 40
0.1345398151663741
 40
0.2043978370383836
 40
0.2724254721911534
 40
0.2724254721911534
 40
0.2724254721911534
 40
0.2724254721911534
 10
734.5815528460411
 20
1460.251564393044
 30
0.0
 10
734.5971523198561
 20
1460.236854409799
 30
0.0
 10
734.6297802425427
 20
1460.206086949195
 30
0.0
 10
734.6793231292226
 20
1460.15931562587
 30
0.0
 10
734.7299647554639
 20
1460.111909901088
 30
0.0
 10
734.7637140477757
 20
1460.080709128119
 30
0.0
 10
734.7803646885573
 20
1460.065315831632
 30
0.0
 11
734.5815528460411
 21
1460.251564393044
 31
0.0
 11
734.6283472571948
 21
1460.207430190577
 31
0.0
 11
734.6794439058674
 21
1460.159269746436
 31
0.0
 11
734.7304601745298
 21
1460.111546758771
 31
0.0
 11
734.7803646885573
 21
1460.065315831632
 31
0.0
  0
SPLINE
  5
122
330
46
100
AcDbEntity
  8
0
  6
Continuous
 62
     3
100
AcDbSpline
210
0.0
220
0.0
230
1.0
 70
     8
 71
     3
 72
    10
 73
     6
 74
     4
 42
0.0000000001
 43
0.0000000001
 44
0.00000001
 40
0.0
 40
0.0
 40
0.0
 40
0.0
 40
0.1026144734767774
 40
0.1612289727807668
 40
0.1911090453223924
 40
0.1911090453223924
 40
0.1911090453223924
 40
0.1911090453223924
 10
734.5815528460411
 20
1460.251564393044
 30
0.0
 10
734.5565404676195
 20
1460.227582738156
 30
0.0
 10
734.5172407475791
 20
1460.189902502101
 30
0.0
 10
734.4936371840212
 20
1460.128799568784
 30
0.0
 10
734.472181755689
 20
1460.108240268447
 30
0.0
 10
734.4649373593195
 20
1460.101298448484
 30
0.0
 11
734.5815528460411
 21
1460.251564393044
 31
0.0
 11
734.5143686567005
 21
1460.17400141947
 31
0.0
 11
734.4854705593805
 21
1460.123005738281
 31
0.0
 11
734.4649373593195
 21
1460.101298448484
 31
0.0
  0
SPLINE
  5
123
330
46
100
AcDbEntity
  8
0
  6
Continuous
 62
     3
100
AcDbSpline
210
0.0
220
0.0
230
1.0
 70
     8
 71
     3
 72
    11
 73
     7
 74
     5
 42
0.0000000001
 43
0.0000000001
 44
0.00000001
 40
0.0
 40
0.0
 40
0.0
 40
0.0
 40
0.0727662873735056
 40
0.1358139081002392
 40
0.1721259534028597
 40
0.1773133884460422
 40
0.1773133884460422
 40
0.1773133884460422
 40
0.1773133884460422
 10
735.7180845268106
 20
1461.411282246314
 30
0.0
 10
735.7357035854827
 20
1461.427868426876
 30
0.0
 10
735.7685885010352
 20
1461.458825537428
 30
0.0
 10
735.8174247168101
 20
1461.491350925485
 30
0.0
 10
735.851752948367
 20
1461.498750435582
 30
0.0
 10
735.8650409540899
 20
1461.50258386526
 30
0.0
 10
735.8667019548052
 20
1461.503063043969
 30
0.0
 11
735.7180845268106
 21
1461.411282246314
 31
0.0
 11
735.7725632192366
 21
1461.459521282889
 31
0.0
 11
735.8267956345828
 21
1461.491674783554
 31
0.0
 11
735.8617136647774
 21
1461.501639511417
 31
0.0
 11
735.8667019548052
 21
1461.503063043969
 31
0.0
  0
SPLINE
  5
124
330
46
100
AcDbEntity
  8
0
  6
Continuous
 62
     3
100
AcDbSpline
210
0.0
220
0.0
230
1.0
 70
     8
 71
     3
 72
    11
 73
     7
 74
     5
 42
0.0000000001
 43
0.0000000001
 44
0.00000001
 40
0.0
 40
0.0
 40
0.0
 40
0.0
 40
0.0726507655384822
 40
0.1378054242743409
 40
0.2144134291120538
 40
0.2900323708851736
 40
0.2900323708851736
 40
0.2900323708851736
 40
0.2900323708851736
 10
735.7180845268106
 20
1461.411282246314
 30
0.0
 10
735.7337061086133
 20
1461.392774791618
 30
0.0
 10
735.7633374372334
 20
1461.357669481608
 30
0.0
 10
735.80767439855
 20
1461.301611182312
 30
0.0
 10
735.8523436572941
 20
1461.24452819461
 30
0.0
 10
735.8859771089983
 20
1461.206517552598
 30
0.0
 10
735.9026845716566
 20
1461.187635714731
 30
0.0
 11
735.7180845268106
 21
1461.411282246314
 31
0.0
 11
735.7646336548589
 21
1461.355503106743
 31
0.0
 11
735.8052672723705
 21
1461.304571400676
 31
0.0
 11
735.8531427349227
 21
1461.244765661063
 31
0.0
 11
735.9026845716566
 21
1461.187635714731
 31
0.0
  0
SPLINE
  5
125
330
46
100
AcDbEntity
  8
0
  6
Continuous
 62
     3
100
AcDbSpline
210
0.0
220
0.0
230
1.0
 70
    24
 71
     3
 72
    11
 73
     7
 74
     5
 42
0.0000000001
 43
0.0000000001
 44
0.00000001
 40
0.0
 40
0.0
 40
0.0
 40
0.0
 40
0.0056553983101079
 40
0.0452431864820688
 40
0.1124555627004123
 40
0.1435044941936714
 40
0.1435044941936714
 40
0.1435044941936714
 40
0.1435044941936714
 10
735.4822819662164
 20
1461.64315675586
 30
0.0
 10
735.4809489760511
 20
1461.641823765694
 30
0.0
 10
735.4702850547303
 20
1461.631159844375
 30
0.0
 10
735.4437790244069
 20
1461.604653814049
 30
0.0
 10
735.4112876809145
 20
1461.572162470558
 30
0.0
 10
735.388127268577
 20
1461.549002058221
 30
0.0
 10
735.3808089652412
 20
1461.541683754885
 30
0.0
 11
735.4822819662164
 21
1461.64315675586
 31
0.0
 11
735.478282995721
 21
1461.639157785365
 31
0.0
 11
735.4502902022525
 21
1461.611164991896
 31
0.0
 11
735.4027638752489
 21
1461.563638664892
 31
0.0
 11
735.3808089652412
 21
1461.541683754885
 31
0.0
  0
SPLINE
  5
126
330
46
100
AcDbEntity
  8
0
  6
Continuous
 62
     3
100
AcDbSpline
210
0.0
220
0.0
230
1.0
 70
     8
 71
     3
 72
    11
 73
     7
 74
     5
 42
0.0000000001
 43
0.0000000001
 44
0.00000001
 40
0.0
 40
0.0
 40
0.0
 40
0.0
 40
0.0873868471429631
 40
0.1717251928797477
 40
0.247461374754907
 40
0.3883989384275497
 40
0.3883989384275497
 40
0.3883989384275497
 40
0.3883989384275497
 10
735.7180845268106
 20
1461.411282246314
 30
0.0
 10
735.6893615566341
 20
1461.407329992296
 30
0.0
 10
735.6329176207918
 20
1461.399563359151
 30
0.0
 10
735.5480121882333
 20
1461.398572792917
 30
0.0
 10
735.4585059490198
 20
1461.450724143567
 30
0.0
 10
735.4114299867697
 20
1461.50583582256
 30
0.0
 10
735.3808089652412
 20
1461.541683754885
 30
0.0
 11
735.7180845268106
 21
1461.411282246314
 31
0.0
 11
735.6312744508206
 21
1461.401258686058
 31
0.0
 11
735.5470938642966
 21
1461.406414790605
 31
0.0
 11
735.4800137050777
 21
1461.441574732075
 31
0.0
 11
735.3808089652412
 21
1461.541683754885
 31
0.0
  0
SPLINE
  5
127
330
46
100
AcDbEntity
  8
0
  6
Continuous
 62
     3
100
AcDbSpline
210
0.0
220
0.0
230
1.0
 70
    24
 71
     3
 72
    11
 73
     7
 74
     5
 42
0.0000000001
 43
0.0000000001
 44
0.00000001
 40
0.0
 40
0.0
 40
0.0
 40
0.0
 40
0.0601226067285059
 40
0.1705315391044739
 40
0.2614767889564823
 40
0.3558102731835894
 40
0.3558102731835894
 40
0.3558102731835894
 40
0.3558102731835894
 10
735.3808089652412
 20
1461.541683754885
 30
0.0
 10
735.3666379309341
 20
1461.527512720578
 30
0.0
 10
735.3264432616985
 20
1461.487318051343
 30
0.0
 10
735.2648125915008
 20
1461.425687381145
 30
0.0
 10
735.1951183401469
 20
1461.35599312979
 30
0.0
 10
735.1514477237208
 20
1461.312322513364
 30
0.0
 10
735.1292131082573
 20
1461.290087897901
 30
0.0
 11
735.3808089652412
 21
1461.541683754885
 31
0.0
 11
735.3382958623206
 21
1461.499170651965
 31
0.0
 11
735.2602249575343
 21
1461.421099747178
 31
0.0
 11
735.1959169546476
 21
1461.356791744291
 31
0.0
 11
735.1292131082573
 21
1461.290087897901
 31
0.0
  0
SPLINE
  5
128
330
46
100
AcDbEntity
  8
0
  6
Continuous
 62
     7
100
AcDbSpline
210
0.0
220
0.0
230
1.0
 70
     8
 71
     3
 72
    11
 73
     7
 74
     5
 42
0.0000000001
 43
0.0000000001
 44
0.00000001
 40
0.0
 40
0.0
 40
0.0
 40
0.0
 40
0.225669992676378
 40
0.451178306894838
 40
0.6597811556113516
 40
0.8620666496859201
 40
0.8620666496859201
 40
0.8620666496859201
 40
0.8620666496859201
 10
735.1292131082573
 20
1461.290087897901
 30
0.0
 10
735.1874641821959
 20
1461.241486984425
 30
0.0
 10
735.3039245968157
 20
1461.144319976993
 30
0.0
 10
735.5125414467259
 20
1461.069070590536
 30
0.0
 10
735.7375273952105
 20
1461.056189986406
 30
0.0
 10
735.8481993685565
 20
1461.144271887869
 30
0.0
 10
735.9026845716566
 20
1461.187635714731
 30
0.0
 11
735.1292131082573
 21
1461.290087897901
 31
0.0
 11
735.3105205489725
 21
1461.155720649154
 31
0.0
 11
735.5222610035645
 21
1461.078132121195
 31
0.0
 11
735.730845376349
 21
1461.080908435795
 31
0.0
 11
735.9026845716566
 21
1461.187635714731
 31
0.0
  0
SPLINE
  5
129
330
46
100
AcDbEntity
  8
0
  6
Continuous
 62
     3
100
AcDbSpline
210
0.0
220
0.0
230
1.0
 70
     8
 71
     3
 72
    13
 73
     9
 74
     7
 42
0.0000000001
 43
0.0000000001
 44
0.00000001
 40
0.0
 40
0.0
 40
0.0
 40
0.0
 40
1.72837863466279
 40
5.135072793364801
 40
9.4862795081282
 40
13.83748622289208
 40
17.21162470150513
 40
18.9535319000098
 40
18.9535319000098
 40
18.9535319000098
 40
18.9535319000098
 10
787.0662822862164
 20
1402.12315579586
 30
0.0
 10
786.7191111516902
 20
1402.583359604343
 30
0.0
 10
785.6876536852569
 20
1403.95064106047
 30
0.0
 10
783.4872332073876
 20
1406.229756152633
 30
0.0
 10
780.6894183009795
 20
1409.137354233804
 30
0.0
 10
777.7901469633314
 20
1411.928512051472
 30
0.0
 10
775.5136330832563
 20
1414.121796818219
 30
0.0
 10
774.1549170884701
 20
1415.153958409866
 30
0.0
 10
773.6923025378168
 20
1415.505387974803
 30
0.0
 11
787.0662822862164
 21
1402.12315579586
 31
0.0
 11
786.0066807423481
 21
1403.48863639733
 31
0.0
 11
783.7076786263307
 21
1406.002628115988
 31
0.0
 11
780.669785722622
 21
1409.117785669018
 31
0.0
 11
777.5546281695919
 21
1412.155678572727
 31
0.0
 11
775.0652494868724
 21
1414.433353757401
 31
0.0
 11
773.6923025378168
 21
1415.505387974803
 31
0.0
  0
SPLINE
  5
12A
330
46
100
AcDbEntity
  8
0
  6
Continuous
 62
     3
100
AcDbSpline
210
0.0
220
0.0
230
1.0
 70
     8
 71
     3
 72
    13
 73
     9
 74
     7
 42
0.0000000001
 43
0.0000000001
 44
0.00000001
 40
0.0
 40
0.0
 40
0.0
 40
0.0
 40
1.817765200377885
 40
5.400643376389931
 40
9.97688146862334
 40
14.55311956085684
 40
18.13599773686894
 40
19.95376293724696
 40
19.95376293724696
 40
19.95376293724696
 40
19.95376293724696
 10
771.7701849141461
 20
1414.301860244169
 30
0.0
 10
772.1353096631523
 20
1413.817854681309
 30
0.0
 10
773.2201079401061
 20
1412.379857388449
 30
0.0
 10
775.5343725976345
 20
1409.982933743741
 30
0.0
 10
778.4766447459062
 20
1406.924644692303
 30
0.0
 10
781.5349337973446
 20
1403.982372544031
 30
0.0
 10
783.9318574420527
 20
1401.668107886503
 30
0.0
 10
785.3698547349122
 20
1400.583309609548
 30
0.0
 10
785.8538602977726
 20
1400.218184860542
 30
0.0
 11
771.7701849141461
 21
1414.301860244169
 31
0.0
 11
772.8845858758812
 21
1412.865761076218
 31
0.0
 11
775.3024854947955
 21
1410.221753236404
 31
0.0
 11
778.4974891196309
 21
1406.945489066027
 31
0.0
 11
781.7737532900084
 21
1403.750485441192
 31
0.0
 11
784.4177611298219
 21
1401.332585822277
 31
0.0
 11
785.8538602977726
 21
1400.218184860542
 31
0.0
  0
SPLINE
  5
12B
330
46
100
AcDbEntity
  8
0
  6
Continuous
 62
     3
100
AcDbSpline
210
0.0
220
0.0
230
1.0
 70
     8
 71
     3
 72
    13
 73
     9
 74
     7
 42
0.0000000001
 43
0.0000000001
 44
0.00000001
 40
0.0
 40
0.0
 40
0.0
 40
0.0
 40
1.72837863466272
 40
5.13507279336473
 40
9.48627950812821
 40
13.83748622289209
 40
17.24418038159434
 40
18.97255901625711
 40
18.97255901625711
 40
18.97255901625711
 40
18.97255901625711
 10
772.5177175306762
 20
1414.356843913825
 30
0.0
 10
772.8648876795148
 20
1413.896638781868
 30
0.0
 10
773.8963422174362
 20
1412.529353393654
 30
0.0
 10
776.0968055051025
 20
1410.250295781829
 30
0.0
 10
778.8943947192537
 20
1407.34239466565
 30
0.0
 10
781.8022958354327
 20
1404.544805451499
 30
0.0
 10
784.0813534472575
 20
1402.344342163832
 30
0.0
 10
785.4486388354724
 20
1401.312887625911
 30
0.0
 10
785.9088439674289
 20
1400.965717477072
 30
0.0
 11
772.5177175306762
 21
1414.356843913825
 31
0.0
 11
773.5773190745444
 21
1412.991363312355
 31
0.0
 11
775.8763211905618
 21
1410.477371593697
 31
0.0
 11
778.9142140942706
 21
1407.362214040667
 31
0.0
 11
782.0293716473008
 21
1404.324321136958
 31
0.0
 11
784.5433633659591
 21
1402.025319020941
 31
0.0
 11
785.9088439674289
 21
1400.965717477072
 31
0.0
  0
SPLINE
  5
12C
330
46
100
AcDbEntity
  8
0
  6
Continuous
 62
     3
100
AcDbSpline
210
0.0
220
0.0
230
1.0
 70
     8
 71
     3
 72
    13
 73
     9
 74
     7
 42
0.0000000001
 43
0.0000000001
 44
0.00000001
 40
0.0
 40
0.0
 40
0.0
 40
0.0
 40
1.817765200377885
 40
5.40064337638984
 40
9.976881468623416
 40
14.55311956085683
 40
18.13599773686878
 40
19.95376293724695
 40
19.95376293724695
 40
19.95376293724695
 40
19.95376293724695
 10
787.8138149027465
 20
1402.178139465516
 30
0.0
 10
787.4486901537401
 20
1402.662145028376
 30
0.0
 10
786.3638918767866
 20
1404.100142321236
 30
0.0
 10
784.0496272192579
 20
1406.497065965945
 30
0.0
 10
781.1073550709865
 20
1409.555355017383
 30
0.0
 10
778.0490660195477
 20
1412.497627165654
 30
0.0
 10
775.6521423748399
 20
1414.811891823183
 30
0.0
 10
774.2141450819804
 20
1415.896690100137
 30
0.0
 10
773.7301395191199
 20
1416.261814849143
 30
0.0
 11
787.8138149027465
 21
1402.178139465516
 31
0.0
 11
786.6994139410114
 21
1403.614238633467
 31
0.0
 11
784.2815143220969
 21
1406.25824647328
 31
0.0
 11
781.0865106972617
 21
1409.534510643658
 31
0.0
 11
777.8102465268842
 21
1412.729514268493
 31
0.0
 11
775.1662386870706
 21
1415.147413887408
 31
0.0
 11
773.7301395191199
 21
1416.261814849143
 31
0.0
  0
SPLINE
  5
12D
330
46
100
AcDbEntity
  8
0
  6
Continuous
 62
     3
100
AcDbSpline
210
0.0
220
0.0
230
1.0
 70
     8
 71
     3
 72
    11
 73
     7
 74
     5
 42
0.0000000001
 43
0.0000000001
 44
0.00000001
 40
0.0
 40
0.0
 40
0.0
 40
0.0
 40
0.0643237494439421
 40
0.1345398151662182
 40
0.2043978370347542
 40
0.2724254721910708
 40
0.2724254721910708
 40
0.2724254721910708
 40
0.2724254721910708
 10
786.1655531660411
 20
1400.731563433044
 30
0.0
 10
786.1811526398562
 20
1400.716853449799
 30
0.0
 10
786.2137805625424
 20
1400.686085989194
 30
0.0
 10
786.2633234492221
 20
1400.639314665872
 30
0.0
 10
786.3139650754626
 20
1400.591908941088
 30
0.0
 10
786.3477143677746
 20
1400.56070816812
 30
0.0
 10
786.3643650085572
 20
1400.545314871632
 30
0.0
 11
786.1655531660411
 21
1400.731563433044
 31
0.0
 11
786.2123475771946
 21
1400.687429230578
 31
0.0
 11
786.2634442258675
 21
1400.639268786436
 31
0.0
 11
786.314460494527
 21
1400.591545798773
 31
0.0
 11
786.3643650085572
 21
1400.545314871632
 31
0.0
  0
SPLINE
  5
12E
330
46
100
AcDbEntity
  8
0
  6
Continuous
 62
     3
100
AcDbSpline
210
0.0
220
0.0
230
1.0
 70
     8
 71
     3
 72
    10
 73
     6
 74
     4
 42
0.0000000001
 43
0.0000000001
 44
0.00000001
 40
0.0
 40
0.0
 40
0.0
 40
0.0
 40
0.1026144734766055
 40
0.1612289727801993
 40
0.1911090453223897
 40
0.1911090453223897
 40
0.1911090453223897
 40
0.1911090453223897
 10
786.1655531660411
 20
1400.731563433044
 30
0.0
 10
786.1405407876196
 20
1400.707581778156
 30
0.0
 10
786.1012410675792
 20
1400.669901542101
 30
0.0
 10
786.0776375040213
 20
1400.608798608785
 30
0.0
 10
786.0561820756886
 20
1400.588239308447
 30
0.0
 10
786.0489376793192
 20
1400.581297488484
 30
0.0
 11
786.1655531660411
 21
1400.731563433044
 31
0.0
 11
786.0983689767006
 21
1400.654000459471
 31
0.0
 11
786.0694708793806
 21
1400.603004778282
 31
0.0
 11
786.0489376793192
 21
1400.581297488484
 31
0.0
  0
SPLINE
  5
12F
330
46
100
AcDbEntity
  8
0
  6
Continuous
 62
     3
100
AcDbSpline
210
0.0
220
0.0
230
1.0
 70
    24
 71
     3
 72
    11
 73
     7
 74
     5
 42
0.0000000001
 43
0.0000000001
 44
0.00000001
 40
0.0
 40
0.0
 40
0.0
 40
0.0
 40
0.0505789735415089
 40
0.1098943028144622
 40
0.1494820909856996
 40
0.1551374892960487
 40
0.1551374892960487
 40
0.1551374892960487
 40
0.1551374892960487
 10
786.018542738126
 20
1401.07541624777
 30
0.0
 10
786.0066211597332
 20
1401.063494669377
 30
0.0
 10
785.9807188241545
 20
1401.037592333801
 30
0.0
 10
785.9454855574241
 20
1401.002359067065
 30
0.0
 10
785.920840878915
 20
1400.977714388558
 30
0.0
 10
785.9101769575941
 20
1400.967050467237
 30
0.0
 10
785.9088439674289
 20
1400.965717477072
 30
0.0
 11
786.018542738126
 21
1401.07541624777
 31
0.0
 11
785.9827780029489
 21
1401.039651512594
 31
0.0
 11
785.9408357313932
 21
1400.997709241035
 31
0.0
 11
785.9128429379244
 21
1400.969716447568
 31
0.0
 11
785.9088439674289
 21
1400.965717477072
 31
0.0
  0
SPLINE
  5
130
330
46
100
AcDbEntity
  8
0
  6
Continuous
 62
     3
100
AcDbSpline
210
0.0
220
0.0
230
1.0
 70
     8
 71
     3
 72
    11
 73
     7
 74
     5
 42
0.0000000001
 43
0.0000000001
 44
0.00000001
 40
0.0
 40
0.0
 40
0.0
 40
0.0
 40
0.1092310169169851
 40
0.1961344014039084
 40
0.2936866857752724
 40
0.3921693445138288
 40
0.3921693445138288
 40
0.3921693445138288
 40
0.3921693445138288
 10
786.1655531660411
 20
1400.731563433044
 30
0.0
 10
786.1688621762787
 20
1400.76811767969
 30
0.0
 10
786.1748038104449
 20
1400.833754213039
 30
0.0
 10
786.1454622656232
 20
1400.929863459222
 30
0.0
 10
786.0870062943676
 20
1401.005216436869
 30
0.0
 10
786.0414360151424
 20
1401.051942390937
 30
0.0
 10
786.018542738126
 20
1401.07541624777
 30
0.0
 11
786.1655531660411
 21
1400.731563433044
 31
0.0
 11
786.167559678431
 21
1400.840776019154
 31
0.0
 11
786.142157717672
 21
1400.923884012902
 31
0.0
 11
786.0859433055117
 21
1401.003610972279
 31
0.0
 11
786.018542738126
 21
1401.07541624777
 31
0.0
  0
SPLINE
  5
131
330
46
100
AcDbEntity
  8
0
  6
Continuous
 62
     7
100
AcDbSpline
210
0.0
220
0.0
230
1.0
 70
     8
 71
     3
 72
    11
 73
     7
 74
     5
 42
0.0000000001
 43
0.0000000001
 44
0.00000001
 40
0.0
 40
0.0
 40
0.0
 40
0.0
 40
0.0676060304784393
 40
0.2074512642188887
 40
0.3971265971462213
 40
0.612143034806261
 40
0.612143034806261
 40
0.612143034806261
 40
0.612143034806261
 10
785.8538602977726
 20
1400.218184860542
 30
0.0
 10
785.8762538012493
 20
1400.221978269847
 30
0.0
 10
785.9449689820349
 20
1400.233618467482
 30
0.0
 10
786.0558371844071
 20
1400.31207138166
 30
0.0
 10
786.2053824213369
 20
1400.412616513575
 30
0.0
 10
786.3092037744487
 20
1400.499273318764
 30
0.0
 10
786.3643650085572
 20
1400.545314871632
 30
0.0
 11
785.8538602977726
 21
1400.218184860542
 31
0.0
 11
785.9198938348277
 21
1400.232681320146
 31
0.0
 11
786.0416559151988
 21
1400.301461296764
 31
0.0
 11
786.1968153898623
 21
1400.410558818932
 31
0.0
 11
786.3643650085572
 21
1400.545314871632
 31
0.0
  0
SPLINE
  5
132
330
46
100
AcDbEntity
  8
0
  6
Continuous
 62
     3
100
AcDbSpline
210
0.0
220
0.0
230
1.0
 70
    24
 71
     3
 72
    11
 73
     7
 74
     5
 42
0.0000000001
 43
0.0000000001
 44
0.00000001
 40
0.0
 40
0.0
 40
0.0
 40
0.0
 40
0.0056553983102687
 40
0.0452431864820688
 40
0.0984929158020458
 40
0.1551374892958075
 40
0.1551374892958075
 40
0.1551374892958075
 40
0.1551374892958075
 10
787.0662822862164
 20
1402.12315579586
 30
0.0
 10
787.0649492960513
 20
1402.121822805695
 30
0.0
 10
787.0542853747298
 20
1402.111158884373
 30
0.0
 10
787.0310703718426
 20
1402.087943881487
 30
0.0
 10
786.9958371051098
 20
1402.052710614751
 30
0.0
 10
786.9699347695308
 20
1402.026808279174
 30
0.0
 10
786.9565835155187
 20
1402.013457025163
 30
0.0
 11
787.0662822862164
 21
1402.12315579586
 31
0.0
 11
787.062283315721
 21
1402.119156825364
 31
0.0
 11
787.0342905222525
 21
1402.091164031896
 31
0.0
 11
786.9966372775547
 21
1402.053510787197
 31
0.0
 11
786.9565835155187
 21
1402.013457025163
 31
0.0
  0
SPLINE
  5
133
330
46
100
AcDbEntity
  8
0
  6
Continuous
 62
     3
100
AcDbSpline
210
0.0
220
0.0
230
1.0
 70
     8
 71
     3
 72
    11
 73
     7
 74
     5
 42
0.0000000001
 43
0.0000000001
 44
0.00000001
 40
0.0
 40
0.0
 40
0.0
 40
0.0
 40
0.0873868471430413
 40
0.1717251928798677
 40
0.2479073811718592
 40
0.3891659703687569
 40
0.3891659703687569
 40
0.3891659703687569
 40
0.3891659703687569
 10
787.3020848468107
 20
1401.891281286314
 30
0.0
 10
787.2733587837611
 20
1401.887305478271
 30
0.0
 10
787.2169087700665
 20
1401.879492558759
 30
0.0
 10
787.1318932626568
 20
1401.878827315675
 30
0.0
 10
787.0420100140996
 20
1401.92983341193
 30
0.0
 10
786.9902251323999
 20
1401.980525398498
 30
0.0
 10
786.9565835155187
 20
1402.013457025163
 30
0.0
 11
787.3020848468107
 21
1401.891281286314
 31
0.0
 11
787.2152747708207
 21
1401.881257726058
 31
0.0
 11
787.1310941842967
 21
1401.886413830605
 31
0.0
 11
787.0629858038624
 21
1401.92054555086
 31
0.0
 11
786.9565835155187
 21
1402.013457025163
 31
0.0
  0
SPLINE
  5
134
330
46
100
AcDbEntity
  8
0
  6
Continuous
 62
     3
100
AcDbSpline
210
0.0
220
0.0
230
1.0
 70
    24
 71
     3
 72
    11
 73
     7
 74
     5
 42
0.0000000001
 43
0.0000000001
 44
0.00000001
 40
0.0
 40
0.0
 40
0.0
 40
0.0
 40
0.0812759345204602
 40
0.158898544002579
 40
0.2650455534891214
 40
0.3441772780814533
 40
0.3441772780814533
 40
0.3441772780814533
 40
0.3441772780814533
 10
786.9565835155187
 20
1402.013457025163
 30
0.0
 10
786.9374265940362
 20
1401.994300103681
 30
0.0
 10
786.8999738480406
 20
1401.956847357686
 30
0.0
 10
786.8375020119774
 20
1401.894375521619
 30
0.0
 10
786.7755355710417
 20
1401.832409080679
 30
0.0
 10
786.7318649546137
 20
1401.788738464256
 30
0.0
 10
786.7132134282573
 20
1401.770086937901
 30
0.0
 11
786.9565835155187
 21
1402.013457025163
 31
0.0
 11
786.8991127510717
 21
1401.955986260717
 31
0.0
 11
786.8442252775349
 21
1401.901098787177
 31
0.0
 11
786.7691680073257
 21
1401.826041516965
 31
0.0
 11
786.7132134282573
 21
1401.770086937901
 31
0.0
  0
SPLINE
  5
135
330
46
100
AcDbEntity
  8
0
  6
Continuous
 62
     7
100
AcDbSpline
210
0.0
220
0.0
230
1.0
 70
     8
 71
     3
 72
    11
 73
     7
 74
     5
 42
0.0000000001
 43
0.0000000001
 44
0.00000001
 40
0.0
 40
0.0
 40
0.0
 40
0.0
 40
0.2256699926747405
 40
0.4511783068947942
 40
0.6597811556024048
 40
0.8620666496859457
 40
0.8620666496859457
 40
0.8620666496859457
 40
0.8620666496859457
 10
786.7132134282573
 20
1401.770086937901
 30
0.0
 10
786.7714645021954
 20
1401.721486024426
 30
0.0
 10
786.8879249168156
 20
1401.624319016994
 30
0.0
 10
787.0965417667223
 20
1401.549069630536
 30
0.0
 10
787.3215277152069
 20
1401.536189026406
 30
0.0
 10
787.4321996885535
 20
1401.624270927867
 30
0.0
 10
787.4866848916565
 20
1401.667634754731
 30
0.0
 11
786.7132134282573
 21
1401.770086937901
 31
0.0
 11
786.8945208689711
 21
1401.635719689155
 31
0.0
 11
787.1062613235645
 21
1401.558131161195
 31
0.0
 11
787.3148456963401
 21
1401.560907475792
 31
0.0
 11
787.4866848916565
 21
1401.667634754731
 31
0.0
  0
SPLINE
  5
136
330
46
100
AcDbEntity
  8
0
  6
Continuous
 62
     7
100
AcDbSpline
210
0.0
220
0.0
230
1.0
 70
     8
 71
     3
 72
    11
 73
     7
 74
     5
 42
0.0000000001
 43
0.0000000001
 44
0.00000001
 40
0.0
 40
0.0
 40
0.0
 40
0.0
 40
0.2022854940834443
 40
0.4108883427911746
 40
0.6363966570126658
 40
0.8620666496858127
 40
0.8620666496858127
 40
0.8620666496858127
 40
0.8620666496858127
 10
786.3643650085572
 20
1400.545314871632
 30
0.0
 10
786.4077288354208
 20
1400.599800074735
 30
0.0
 10
786.4958107368823
 20
1400.710472048082
 30
0.0
 10
786.4829301327516
 20
1400.935457996566
 30
0.0
 10
786.407680746295
 20
1401.144074846474
 30
0.0
 10
786.310513738863
 20
1401.260535261094
 30
0.0
 10
786.2619128253879
 20
1401.318786335031
 30
0.0
 11
786.3643650085572
 21
1400.545314871632
 31
0.0
 11
786.4710922874957
 21
1400.717154066948
 31
0.0
 11
786.4738686020936
 21
1400.925738439724
 31
0.0
 11
786.3962800741334
 21
1401.137478894319
 31
0.0
 11
786.2619128253879
 21
1401.318786335031
 31
0.0
  0
SPLINE
  5
137
330
46
100
AcDbEntity
  8
0
  6
Continuous
 62
     3
100
AcDbSpline
210
0.0
220
0.0
230
1.0
 70
     8
 71
     3
 72
    11
 73
     7
 74
     5
 42
0.0000000001
 43
0.0000000001
 44
0.00000001
 40
0.0
 40
0.0
 40
0.0
 40
0.0
 40
0.0727662873742132
 40
0.1358139081004759
 40
0.1721259534027845
 40
0.1773133884459669
 40
0.1773133884459669
 40
0.1773133884459669
 40
0.1773133884459669
 10
787.3020848468107
 20
1401.891281286314
 30
0.0
 10
787.3197039054832
 20
1401.907867466876
 30
0.0
 10
787.3525888210356
 20
1401.938824577428
 30
0.0
 10
787.4014250368091
 20
1401.971349965487
 30
0.0
 10
787.4357532683675
 20
1401.978749475582
 30
0.0
 10
787.4490412740895
 20
1401.982582905259
 30
0.0
 10
787.4507022748049
 20
1401.983062083969
 30
0.0
 11
787.3020848468107
 21
1401.891281286314
 31
0.0
 11
787.3565635392371
 21
1401.93952032289
 31
0.0
 11
787.4107959545826
 21
1401.971673823555
 31
0.0
 11
787.4457139847772
 21
1401.981638551417
 31
0.0
 11
787.4507022748049
 21
1401.983062083969
 31
0.0
  0
SPLINE
  5
138
330
46
100
AcDbEntity
  8
0
  6
Continuous
 62
     3
100
AcDbSpline
210
0.0
220
0.0
230
1.0
 70
     8
 71
     3
 72
    11
 73
     7
 74
     5
 42
0.0000000001
 43
0.0000000001
 44
0.00000001
 40
0.0
 40
0.0
 40
0.0
 40
0.0
 40
0.0726507655388313
 40
0.1378054242746541
 40
0.2144134291121182
 40
0.2900323708852897
 40
0.2900323708852897
 40
0.2900323708852897
 40
0.2900323708852897
 10
787.3020848468107
 20
1401.891281286314
 30
0.0
 10
787.3177064286133
 20
1401.872773831618
 30
0.0
 10
787.3473377572334
 20
1401.837668521609
 30
0.0
 10
787.3916747185502
 20
1401.781610222311
 30
0.0
 10
787.4363439772939
 20
1401.724527234609
 30
0.0
 10
787.469977428998
 20
1401.686516592598
 30
0.0
 10
787.4866848916565
 20
1401.667634754731
 30
0.0
 11
787.3020848468107
 21
1401.891281286314
 31
0.0
 11
787.348633974859
 21
1401.835502146743
 31
0.0
 11
787.3892675923709
 21
1401.784570440676
 31
0.0
 11
787.4371430549223
 21
1401.724764701063
 31
0.0
 11
787.4866848916565
 21
1401.667634754731
 31
0.0
  0
SPLINE
  5
139
330
46
100
AcDbEntity
  8
0
  6
Continuous
 62
     7
100
AcDbSpline
210
0.0
220
0.0
230
1.0
 70
     8
 71
     3
 72
    11
 73
     7
 74
     5
 42
0.0000000001
 43
0.0000000001
 44
0.00000001
 40
0.0
 40
0.0
 40
0.0
 40
0.0
 40
0.2150164376089792
 40
0.404691770588249
 40
0.5445370043342581
 40
0.6121430348068067
 40
0.6121430348068067
 40
0.6121430348068067
 40
0.6121430348068067
 10
787.4866848916565
 20
1401.667634754731
 30
0.0
 10
787.5327264445133
 20
1401.722795988826
 30
0.0
 10
787.619383249702
 20
1401.826617341938
 30
0.0
 10
787.7199283816205
 20
1401.976162578869
 30
0.0
 10
787.7983812958079
 20
1402.087030781255
 30
0.0
 10
787.8100214934419
 20
1402.155745962041
 30
0.0
 10
787.8138149027465
 20
1402.178139465516
 30
0.0
 11
787.4866848916565
 21
1401.667634754731
 31
0.0
 11
787.6214409443251
 21
1401.835184373385
 31
0.0
 11
787.7305384665249
 21
1401.99034384809
 31
0.0
 11
787.7993184431452
 21
1402.112105928466
 31
0.0
 11
787.8138149027465
 21
1402.178139465516
 31
0.0
  0
SPLINE
  5
13A
330
46
100
AcDbEntity
  8
0
  6
Continuous
 62
     3
100
AcDbSpline
210
0.0
220
0.0
230
1.0
 70
    24
 71
     3
 72
    11
 73
     7
 74
     5
 42
0.0000000001
 43
0.0000000001
 44
0.00000001
 40
0.0
 40
0.0
 40
0.0
 40
0.0
 40
0.0943334842269463
 40
0.1852787340791154
 40
0.2697482299295093
 40
0.3441772780811317
 40
0.3441772780811317
 40
0.3441772780811317
 40
0.3441772780811317
 10
786.2619128253879
 20
1401.318786335031
 30
0.0
 10
786.2396782099243
 20
1401.296551719568
 30
0.0
 10
786.1960075934982
 20
1401.252881103143
 30
0.0
 10
786.1324273259668
 20
1401.18930083561
 30
0.0
 10
786.0735385790105
 20
1401.130412088652
 30
0.0
 10
786.0360858330147
 20
1401.092959342658
 30
0.0
 10
786.018542738126
 20
1401.07541624777
 30
0.0
 11
786.2619128253879
 21
1401.318786335031
 31
0.0
 11
786.1952089789976
 21
1401.252082488642
 31
0.0
 11
786.1309009761109
 21
1401.187774485754
 31
0.0
 11
786.0711720227922
 21
1401.128045532434
 31
0.0
 11
786.018542738126
 21
1401.07541624777
 31
0.0
  0
SPLINE
  5
13B
330
46
100
AcDbEntity
  8
0
  6
Continuous
 62
     3
100
AcDbSpline
210
0.0
220
0.0
230
1.0
 70
     8
 71
     3
 72
    10
 73
     6
 74
     4
 42
0.0000000001
 43
0.0000000001
 44
0.00000001
 40
0.0
 40
0.0
 40
0.0
 40
0.0
 40
0.1026144734769262
 40
0.1612289727803519
 40
0.1911090453228905
 40
0.1911090453228905
 40
0.1911090453228905
 40
0.1911090453228905
 10
773.4184466508515
 20
1415.748436276641
 30
0.0
 10
773.4434590292731
 20
1415.772417931529
 30
0.0
 10
773.4827587493137
 20
1415.810098167584
 30
0.0
 10
773.5063623128717
 20
1415.8712011009
 30
0.0
 10
773.5278177412035
 20
1415.891760401238
 30
0.0
 10
773.5350621375728
 20
1415.898702221202
 30
0.0
 11
773.4184466508515
 21
1415.748436276641
 31
0.0
 11
773.4856308401922
 21
1415.825999250215
 31
0.0
 11
773.514528937512
 21
1415.876994931403
 31
0.0
 11
773.5350621375728
 21
1415.898702221202
 31
0.0
  0
SPLINE
  5
13C
330
46
100
AcDbEntity
  8
0
  6
Continuous
 62
     3
100
AcDbSpline
210
0.0
220
0.0
230
1.0
 70
     8
 71
     3
 72
    11
 73
     7
 74
     5
 42
0.0000000001
 43
0.0000000001
 44
0.00000001
 40
0.0
 40
0.0
 40
0.0
 40
0.0
 40
0.1092310169160945
 40
0.1961344014040206
 40
0.2936866857752535
 40
0.3921693445139656
 40
0.3921693445139656
 40
0.3921693445139656
 40
0.3921693445139656
 10
773.4184466508515
 20
1415.748436276641
 30
0.0
 10
773.4151376406139
 20
1415.711882029996
 30
0.0
 10
773.4091960064466
 20
1415.646245496646
 30
0.0
 10
773.4385375512686
 20
1415.550136250463
 30
0.0
 10
773.4969935225246
 20
1415.474783272816
 30
0.0
 10
773.5425638017497
 20
1415.428057318748
 30
0.0
 10
773.565457078766
 20
1415.404583461915
 30
0.0
 11
773.4184466508515
 21
1415.748436276641
 31
0.0
 11
773.4164401384606
 21
1415.639223690532
 31
0.0
 11
773.44184209922
 21
1415.556115696783
 31
0.0
 11
773.4980565113801
 21
1415.476388737406
 31
0.0
 11
773.565457078766
 21
1415.404583461915
 31
0.0
  0
SPLINE
  5
13D
330
46
100
AcDbEntity
  8
0
  6
Continuous
 62
     3
100
AcDbSpline
210
0.0
220
0.0
230
1.0
 70
     8
 71
     3
 72
    11
 73
     7
 74
     5
 42
0.0000000001
 43
0.0000000001
 44
0.00000001
 40
0.0
 40
0.0
 40
0.0
 40
0.0
 40
0.0643237494456413
 40
0.134539815165346
 40
0.2043978370476289
 40
0.272425472191235
 40
0.272425472191235
 40
0.272425472191235
 40
0.272425472191235
 10
773.4184466508515
 20
1415.748436276641
 30
0.0
 10
773.4028471770359
 20
1415.763146259887
 30
0.0
 10
773.3702192543495
 20
1415.79391372049
 30
0.0
 10
773.3206763676673
 20
1415.840685043817
 30
0.0
 10
773.270034741427
 20
1415.888090768599
 30
0.0
 10
773.2362854491146
 20
1415.919291541568
 30
0.0
 10
773.2196348083352
 20
1415.934684838053
 30
0.0
 11
773.4184466508515
 21
1415.748436276641
 31
0.0
 11
773.3716522396966
 21
1415.792570479108
 31
0.0
 11
773.3205555910255
 21
1415.840730923248
 31
0.0
 11
773.2695393223561
 21
1415.88845391092
 31
0.0
 11
773.2196348083352
 21
1415.934684838053
 31
0.0
  0
SPLINE
  5
13E
330
46
100
AcDbEntity
  8
0
  6
Continuous
 62
     3
100
AcDbSpline
210
0.0
220
0.0
230
1.0
 70
    24
 71
     3
 72
    11
 73
     7
 74
     5
 42
0.0000000001
 43
0.0000000001
 44
0.00000001
 40
0.0
 40
0.0
 40
0.0
 40
0.0
 40
0.0512408198898021
 40
0.1098943028140602
 40
0.1494820909856996
 40
0.1551374892964506
 40
0.1551374892964506
 40
0.1551374892964506
 40
0.1551374892964506
 10
773.565457078766
 20
1415.404583461915
 30
0.0
 10
773.5775346558382
 20
1415.416661038988
 30
0.0
 10
773.603436991416
 20
1415.442563374567
 30
0.0
 10
773.638670258151
 20
1415.477796641298
 30
0.0
 10
773.6631589379781
 20
1415.502285321127
 30
0.0
 10
773.6738228592985
 20
1415.512949242448
 30
0.0
 10
773.6751558494637
 20
1415.514282232613
 30
0.0
 11
773.565457078766
 21
1415.404583461915
 31
0.0
 11
773.6016898099833
 21
1415.440816193133
 31
0.0
 11
773.6431640855003
 21
1415.482290468648
 31
0.0
 11
773.6711568789681
 21
1415.510283262117
 31
0.0
 11
773.6751558494637
 21
1415.514282232613
 31
0.0
  0
SPLINE
  5
13F
330
46
100
AcDbEntity
  8
0
  6
Continuous
 62
     3
100
AcDbSpline
210
0.0
220
0.0
230
1.0
 70
    24
 71
     3
 72
    11
 73
     7
 74
     5
 42
0.0000000001
 43
0.0000000001
 44
0.00000001
 40
0.0
 40
0.0
 40
0.0
 40
0.0
 40
0.0943334842268659
 40
0.1852787340783919
 40
0.2586972023016993
 40
0.3441772780808102
 40
0.3441772780808102
 40
0.3441772780808102
 40
0.3441772780808102
 10
773.3220869915046
 20
1415.161213374654
 30
0.0
 10
773.3443216069677
 20
1415.183447990117
 30
0.0
 10
773.3879922233931
 20
1415.227118606542
 30
0.0
 10
773.4489677387339
 20
1415.288094121883
 30
0.0
 10
773.5078564856924
 20
1415.346982868838
 30
0.0
 10
773.5453092316867
 20
1415.384435614835
 30
0.0
 10
773.565457078766
 20
1415.404583461915
 30
0.0
 11
773.3220869915046
 21
1415.161213374654
 31
0.0
 11
773.3887908378944
 21
1415.227917221044
 31
0.0
 11
773.4530988407815
 21
1415.29222522393
 31
0.0
 11
773.5050135375271
 21
1415.344139920674
 31
0.0
 11
773.565457078766
 21
1415.404583461915
 31
0.0
  0
SPLINE
  5
140
330
46
100
AcDbEntity
  8
0
  6
Continuous
 62
     7
100
AcDbSpline
210
0.0
220
0.0
230
1.0
 70
     8
 71
     3
 72
    11
 73
     7
 74
     5
 42
0.0000000001
 43
0.0000000001
 44
0.00000001
 40
0.0
 40
0.0
 40
0.0
 40
0.0
 40
0.0676060304684779
 40
0.2074512642189928
 40
0.3971265973882018
 40
0.6121430348060616
 40
0.6121430348060616
 40
0.6121430348060616
 40
0.6121430348060616
 10
773.7301395191199
 20
1416.261814849143
 30
0.0
 10
773.7077460156463
 20
1416.258021439838
 30
0.0
 10
773.6390308348607
 20
1416.246381242204
 30
0.0
 10
773.5281626324197
 20
1416.167928327982
 30
0.0
 10
773.3786173954928
 20
1416.067383196057
 30
0.0
 10
773.2747960423814
 20
1415.980726390869
 30
0.0
 10
773.2196348083352
 20
1415.934684838053
 30
0.0
 11
773.7301395191199
 21
1416.261814849143
 31
0.0
 11
773.6641059820744
 21
1416.247318389542
 31
0.0
 11
773.5423439016934
 21
1416.178538412921
 31
0.0
 11
773.3871844268376
 21
1416.069440890606
 31
0.0
 11
773.2196348083352
 21
1415.934684838053
 31
0.0
  0
SPLINE
  5
141
330
46
100
AcDbEntity
  8
0
  6
Continuous
 62
     3
100
AcDbSpline
210
0.0
220
0.0
230
1.0
 70
     8
 71
     3
 72
    11
 73
     7
 74
     5
 42
0.0000000001
 43
0.0000000001
 44
0.00000001
 40
0.0
 40
0.0
 40
0.0
 40
0.0
 40
0.0727662873726012
 40
0.1358139080999579
 40
0.1721259534023443
 40
0.1773133884455891
 40
0.1773133884455891
 40
0.1773133884455891
 40
0.1773133884455891
 10
772.2819149700821
 20
1414.58871842337
 30
0.0
 10
772.2642959114097
 20
1414.572132242808
 30
0.0
 10
772.231410995857
 20
1414.541175132258
 30
0.0
 10
772.1825747800831
 20
1414.508649744201
 30
0.0
 10
772.1482465485242
 20
1414.501250234102
 30
0.0
 10
772.1349585428025
 20
1414.497416804426
 30
0.0
 10
772.1332975420871
 20
1414.496937625716
 30
0.0
 11
772.2819149700821
 21
1414.58871842337
 31
0.0
 11
772.227436277656
 21
1414.540479386797
 31
0.0
 11
772.1732038623094
 21
1414.508325886131
 31
0.0
 11
772.1382858321149
 21
1414.498361158268
 31
0.0
 11
772.1332975420871
 21
1414.496937625716
 31
0.0
  0
SPLINE
  5
142
330
46
100
AcDbEntity
  8
0
  6
Continuous
 62
     3
100
AcDbSpline
210
0.0
220
0.0
230
1.0
 70
     8
 71
     3
 72
    11
 73
     7
 74
     5
 42
0.0000000001
 43
0.0000000001
 44
0.00000001
 40
0.0
 40
0.0
 40
0.0
 40
0.0
 40
0.0873868471430152
 40
0.1717251928797142
 40
0.2479073811707899
 40
0.3891659703671533
 40
0.3891659703671533
 40
0.3891659703671533
 40
0.3891659703671533
 10
772.2819149700821
 20
1414.58871842337
 30
0.0
 10
772.310641033132
 20
1414.592694231413
 30
0.0
 10
772.367091046826
 20
1414.600507150924
 30
0.0
 10
772.4521065542356
 20
1414.60117239401
 30
0.0
 10
772.5419898027928
 20
1414.550166297756
 30
0.0
 10
772.5937746844922
 20
1414.499474311188
 30
0.0
 10
772.6274163013734
 20
1414.466542684523
 30
0.0
 11
772.2819149700821
 21
1414.58871842337
 31
0.0
 11
772.3687250460721
 21
1414.598741983626
 31
0.0
 11
772.452905632596
 21
1414.593585879079
 31
0.0
 11
772.5210140130298
 21
1414.559454158825
 31
0.0
 11
772.6274163013734
 21
1414.466542684523
 31
0.0
  0
SPLINE
  5
143
330
46
100
AcDbEntity
  8
0
  6
Continuous
 62
     3
100
AcDbSpline
210
0.0
220
0.0
230
1.0
 70
    24
 71
     3
 72
    11
 73
     7
 74
     5
 42
0.0000000001
 43
0.0000000001
 44
0.00000001
 40
0.0
 40
0.0
 40
0.0
 40
0.0
 40
0.081997680950471
 40
0.1588985440023379
 40
0.2643534222063724
 40
0.3441772780811317
 40
0.3441772780811317
 40
0.3441772780811317
 40
0.3441772780811317
 10
772.6274163013734
 20
1414.466542684523
 30
0.0
 10
772.6467433401206
 20
1414.48586972327
 30
0.0
 10
772.6841960861152
 20
1414.523322469265
 30
0.0
 10
772.7465047852733
 20
1414.585631168422
 30
0.0
 10
772.808301108949
 20
1414.647427492093
 30
0.0
 10
772.8519717253726
 20
1414.69109810852
 30
0.0
 10
772.8707863886352
 20
1414.709912771784
 30
0.0
 11
772.6274163013734
 21
1414.466542684523
 31
0.0
 11
772.6853974176149
 21
1414.524523800765
 31
0.0
 11
772.7397745393587
 21
1414.578900922507
 31
0.0
 11
772.8143423988472
 21
1414.653468781993
 31
0.0
 11
772.8707863886352
 21
1414.709912771784
 31
0.0
  0
SPLINE
  5
144
330
46
100
AcDbEntity
  8
0
  6
Continuous
 62
     3
100
AcDbSpline
210
0.0
220
0.0
230
1.0
 70
     8
 71
     3
 72
    11
 73
     7
 74
     5
 42
0.0000000001
 43
0.0000000001
 44
0.00000001
 40
0.0
 40
0.0
 40
0.0
 40
0.0
 40
0.0726507655385399
 40
0.137805424274185
 40
0.214413429112821
 40
0.2900323708852538
 40
0.2900323708852538
 40
0.2900323708852538
 40
0.2900323708852538
 10
772.2819149700821
 20
1414.58871842337
 30
0.0
 10
772.2662933882796
 20
1414.607225878066
 30
0.0
 10
772.2366620596601
 20
1414.642331188076
 30
0.0
 10
772.192325098342
 20
1414.698389487372
 30
0.0
 10
772.1476558395991
 20
1414.755472475075
 30
0.0
 10
772.1140223878941
 20
1414.793483117086
 30
0.0
 10
772.097314925236
 20
1414.812364954953
 30
0.0
 11
772.2819149700821
 21
1414.58871842337
 31
0.0
 11
772.2353658420342
 21
1414.644497562941
 31
0.0
 11
772.1947322245223
 21
1414.695429269008
 31
0.0
 11
772.1468567619698
 21
1414.755235008622
 31
0.0
 11
772.097314925236
 21
1414.812364954953
 31
0.0
  0
SPLINE
  5
145
330
46
100
AcDbEntity
  8
0
  6
Continuous
 62
     3
100
AcDbSpline
210
0.0
220
0.0
230
1.0
 70
    24
 71
     3
 72
    11
 73
     7
 74
     5
 42
0.0000000001
 43
0.0000000001
 44
0.00000001
 40
0.0
 40
0.0
 40
0.0
 40
0.0
 40
0.0056553983102687
 40
0.0452431864819885
 40
0.1000352684673519
 40
0.1551374892960487
 40
0.1551374892960487
 40
0.1551374892960487
 40
0.1551374892960487
 10
772.5177175306762
 20
1414.356843913825
 30
0.0
 10
772.5190505208413
 20
1414.35817690399
 30
0.0
 10
772.5297144421628
 20
1414.368840825312
 30
0.0
 10
772.5532929810596
 20
1414.392419364209
 30
0.0
 10
772.5885262477948
 20
1414.427652630941
 30
0.0
 10
772.6144285833716
 20
1414.45355496652
 30
0.0
 10
772.6274163013734
 20
1414.466542684523
 30
0.0
 11
772.5177175306762
 21
1414.356843913825
 31
0.0
 11
772.5217165011717
 21
1414.360842884321
 31
0.0
 11
772.54970929464
 21
1414.388835677789
 31
0.0
 11
772.588453147368
 21
1414.427579530515
 31
0.0
 11
772.6274163013734
 21
1414.466542684523
 31
0.0
  0
SPLINE
  5
146
330
46
100
AcDbEntity
  8
0
  6
Continuous
 62
     7
100
AcDbSpline
210
0.0
220
0.0
230
1.0
 70
     8
 71
     3
 72
    11
 73
     7
 74
     5
 42
0.0000000001
 43
0.0000000001
 44
0.00000001
 40
0.0
 40
0.0
 40
0.0
 40
0.0
 40
0.2150164374398234
 40
0.4046917705872458
 40
0.5445370043305529
 40
0.612143034805539
 40
0.612143034805539
 40
0.612143034805539
 40
0.612143034805539
 10
772.097314925236
 20
1414.812364954953
 30
0.0
 10
772.0512733724154
 20
1414.757203720902
 30
0.0
 10
771.9646165672265
 20
1414.65338236779
 30
0.0
 10
771.8640714353032
 20
1414.503837130865
 30
0.0
 10
771.7856185210873
 20
1414.39296892843
 30
0.0
 10
771.7739783234515
 20
1414.324253747644
 30
0.0
 10
771.7701849141461
 20
1414.301860244169
 30
0.0
 11
772.097314925236
 21
1414.812364954953
 31
0.0
 11
771.9625588726694
 21
1414.644815336434
 31
0.0
 11
771.8534613503674
 21
1414.489655861595
 31
0.0
 11
771.7846813737493
 21
1414.367893781221
 31
0.0
 11
771.7701849141461
 21
1414.301860244169
 31
0.0
  0
SPLINE
  5
147
330
46
100
AcDbEntity
  8
0
  6
Continuous
 62
     7
100
AcDbSpline
210
0.0
220
0.0
230
1.0
 70
     8
 71
     3
 72
    12
 73
     8
 74
     6
 42
0.0000000001
 43
0.0000000001
 44
0.00000001
 40
0.0
 40
0.0
 40
0.0
 40
0.0
 40
0.1769015107819939
 40
0.3213642626819236
 40
0.4128454655099762
 40
0.6383537797240848
 40
0.8640237724046074
 40
0.8640237724046074
 40
0.8640237724046074
 40
0.8640237724046074
 10
773.2196348083352
 20
1415.934684838053
 30
0.0
 10
773.1805001936387
 20
1415.888640579032
 30
0.0
 10
773.1094071512919
 20
1415.80499528236
 30
0.0
 10
773.095399871831
 20
1415.662092686913
 30
0.0
 10
773.1132492299753
 20
1415.509819766067
 30
0.0
 10
773.1767109617559
 20
1415.335156369429
 30
0.0
 10
773.2736167396182
 20
1415.219208222809
 30
0.0
 10
773.3220869915046
 20
1415.161213374654
 30
0.0
 11
773.2196348083352
 21
1415.934684838053
 31
0.0
 11
773.1204694736696
 21
1415.788191217313
 31
0.0
 11
773.1000246623753
 21
1415.645182488986
 31
0.0
 11
773.1101312147986
 21
1415.554261269961
 31
0.0
 11
773.1877197427559
 21
1415.342520815373
 31
0.0
 11
773.3220869915046
 21
1415.161213374654
 31
0.0
  0
SPLINE
  5
148
330
46
100
AcDbEntity
  8
0
  6
Continuous
 62
     7
100
AcDbSpline
210
0.0
220
0.0
230
1.0
 70
     8
 71
     3
 72
    12
 73
     8
 74
     6
 42
0.0000000001
 43
0.0000000001
 44
0.00000001
 40
0.0
 40
0.0
 40
0.0
 40
0.0
 40
0.2256699926728762
 40
0.4511783068949223
 40
0.5426595097209285
 40
0.687122261621646
 40
0.8640237724046784
 40
0.8640237724046784
 40
0.8640237724046784
 40
0.8640237724046784
 10
772.8707863886352
 20
1414.709912771784
 30
0.0
 10
772.8127915404823
 20
1414.758383023669
 30
0.0
 10
772.6968433938623
 20
1414.855288801532
 30
0.0
 10
772.522179997226
 20
1414.918750533313
 30
0.0
 10
772.3699070763776
 20
1414.936599891457
 30
0.0
 10
772.2270044809294
 20
1414.922592611997
 30
0.0
 10
772.1433591842574
 20
1414.85149956965
 30
0.0
 10
772.097314925236
 20
1414.812364954953
 30
0.0
 11
772.8707863886352
 21
1414.709912771784
 31
0.0
 11
772.6894789479229
 21
1414.844280020529
 31
0.0
 11
772.4777384933278
 21
1414.92186854849
 31
0.0
 11
772.3868172743049
 21
1414.931975100913
 31
0.0
 11
772.2438085459773
 21
1414.911530289619
 31
0.0
 11
772.097314925236
 21
1414.812364954953
 31
0.0
  0
ENDBLK
  5
48
330
46
100
AcDbEntity
  8
0
100
AcDbBlockEnd
  0
BLOCK
  5
4C
330
49
100
AcDbEntity
  8
0
100
AcDbBlockBegin
  2
Bgr_Geruchsverschluss_0138_3E__3
 70
     0
 71
     0
 10
713.0000000044463
 20
1392.500000334842
 30
0.0
  3
Bgr_Geruchsverschluss_0138_3E__3
  1

  0
INSERT
  5
4A
330
49
100
AcDbEntity
  8
0
100
AcDbBlockReference
  2
10954_Einsatz_GV__1
 10
713.0000000044463
 20
1392.500000334842
 30
0.0
  0
INSERT
  5
4B
330
49
100
AcDbEntity
  8
0
100
AcDbBlockReference
  2
10994_Deckel_GV__2
 10
713.0000000044463
 20
1392.500000334842
 30
0.0
  0
ENDBLK
  5
4D
330
49
100
AcDbEntity
  8
0
100
AcDbBlockEnd
  0
BLOCK
  5
50
330
4E
100
AcDbEntity
  8
0
100
AcDbBlockBegin
  2
Vordans1
 70
     0
 71
     0
 10
753.999999992217
 20
1437.999999993812
 30
0.0
  3
Vordans1
  1

  0
INSERT
  5
4F
330
4E
100
AcDbEntity
  8
0
100
AcDbBlockReference
  2
Bgr_Geruchsverschluss_0138_3E__3
 10
713.0000000044463
 20
1392.500000334842
 30
0.0
  0
ENDBLK
  5
51
330
4E
100
AcDbEntity
  8
0
100
AcDbBlockEnd
  0
BLOCK
  5
53
330
52
100
AcDbEntity
  8
0
100
AcDbBlockBegin
  2
11054_Steckdichtung-GV_1
 70
     0
 71
     0
 10
816.0000001392582
 20
1395.500000334843
 30
0.0
  3
11054_Steckdichtung-GV_1
  1

  0
LINE
  5
149
330
52
100
AcDbEntity
  8
1
  6
DOT_CENTER
 62
     2
100
AcDbLine
 10
815.0000001392582
 20
1407.500000334843
 30
0.0
 11
826.5000001392586
 21
1407.500000334843
 31
0.0
  0
LINE
  5
14A
330
52
100
AcDbEntity
  8
0
  6
Continuous
 62
     7
100
AcDbLine
 10
822.454044787859
 20
1417.000000334843
 30
0.0
 11
818.5000001392583
 21
1417.000000334843
 31
0.0
  0
LINE
  5
14B
330
52
100
AcDbEntity
  8
0
  6
Continuous
 62
     7
100
AcDbLine
 10
818.5000001392583
 20
1417.000000334843
 30
0.0
 11
818.5000001392583
 21
1418.500000334843
 31
0.0
  0
LINE
  5
14C
330
52
100
AcDbEntity
  8
0
  6
Continuous
 62
     7
100
AcDbLine
 10
818.5000001392583
 20
1396.500000334843
 30
0.0
 11
818.5000001392583
 21
1398.000000334843
 31
0.0
  0
LINE
  5
14D
330
52
100
AcDbEntity
  8
0
  6
Continuous
 62
     7
100
AcDbLine
 10
818.0000001392583
 20
1418.500000334843
 30
0.0
 11
818.0000001392583
 21
1415.700000334843
 31
0.0
  0
LINE
  5
14E
330
52
100
AcDbEntity
  8
0
  6
Continuous
 62
     7
100
AcDbLine
 10
818.5000001392583
 20
1398.000000334843
 30
0.0
 11
818.5000001392583
 21
1417.000000334843
 31
0.0
  0
LINE
  5
14F
330
52
100
AcDbEntity
  8
0
  6
Continuous
 62
     7
100
AcDbLine
 10
817.454044787859
 20
1417.000000334843
 30
0.0
 11
817.454044787859
 21
1398.000000334843
 31
0.0
  0
LINE
  5
150
330
52
100
AcDbEntity
  8
0
  6
Continuous
 62
     7
100
AcDbLine
 10
818.0000001392583
 20
1396.500000334843
 30
0.0
 11
818.0000001392583
 21
1415.700000334843
 31
0.0
  0
LINE
  5
151
330
52
100
AcDbEntity
  8
0
  6
Continuous
 62
     7
100
AcDbLine
 10
817.454044787859
 20
1398.000000334843
 30
0.0
 11
818.0000001392583
 21
1396.500000334843
 31
0.0
  0
LINE
  5
152
330
52
100
AcDbEntity
  8
0
  6
Continuous
 62
     7
100
AcDbLine
 10
818.0000001392583
 20
1418.500000334843
 30
0.0
 11
818.5000001392583
 21
1418.500000334843
 31
0.0
  0
LINE
  5
153
330
52
100
AcDbEntity
  8
0
  6
Continuous
 62
     7
100
AcDbLine
 10
816.5000001392583
 20
1417.000000334843
 30
0.0
 11
817.454044787859
 21
1417.000000334843
 31
0.0
  0
LINE
  5
154
330
52
100
AcDbEntity
  8
0
  6
Continuous
 62
     7
100
AcDbLine
 10
818.0000001392583
 20
1396.500000334843
 30
0.0
 11
818.5000001392583
 21
1396.500000334843
 31
0.0
  0
LINE
  5
155
330
52
100
AcDbEntity
  8
0
  6
Continuous
 62
     7
100
AcDbLine
 10
816.5000001392583
 20
1398.000000334843
 30
0.0
 11
817.454044787859
 21
1398.000000334843
 31
0.0
  0
LINE
  5
156
330
52
100
AcDbEntity
  8
0
  6
Continuous
 62
     7
100
AcDbLine
 10
822.454044787859
 20
1398.000000334843
 30
0.0
 11
818.5000001392583
 21
1398.000000334843
 31
0.0
  0
LINE
  5
157
330
52
100
AcDbEntity
  8
0
  6
Continuous
 62
     7
100
AcDbLine
 10
816.0000001392583
 20
1416.500000334843
 30
0.0
 11
816.0000001392582
 21
1415.000000334843
 31
0.0
  0
LINE
  5
158
330
52
100
AcDbEntity
  8
0
  6
Continuous
 62
     7
100
AcDbLine
 10
816.0000001392582
 20
1400.000000334843
 30
0.0
 11
816.0000001392583
 21
1398.500000334843
 31
0.0
  0
LINE
  5
159
330
52
100
AcDbEntity
  8
0
  6
Continuous
 62
     7
100
AcDbLine
 10
816.0000001392583
 20
1416.500000334843
 30
0.0
 11
816.5000001392583
 21
1417.000000334843
 31
0.0
  0
LINE
  5
15A
330
52
100
AcDbEntity
  8
0
  6
Continuous
 62
     7
100
AcDbLine
 10
816.0000001392583
 20
1398.500000334843
 30
0.0
 11
816.5000001392583
 21
1398.000000334843
 31
0.0
  0
LINE
  5
15B
330
52
100
AcDbEntity
  8
0
  6
Continuous
 62
     7
100
AcDbLine
 10
816.0000001392582
 20
1400.000000334843
 30
0.0
 11
816.0000001392582
 21
1415.000000334843
 31
0.0
  0
LINE
  5
15C
330
52
100
AcDbEntity
  8
0
  6
Continuous
 62
     7
100
AcDbLine
 10
816.5000001392583
 20
1417.000000334843
 30
0.0
 11
816.5000001392583
 21
1398.000000334843
 31
0.0
  0
LINE
  5
15D
330
52
100
AcDbEntity
  8
0
  6
Continuous
 62
     7
100
AcDbLine
 10
827.0000001392583
 20
1396.000000334843
 30
0.0
 11
827.0000001392583
 21
1397.500000334843
 31
0.0
  0
LINE
  5
15E
330
52
100
AcDbEntity
  8
0
  6
Continuous
 62
     7
100
AcDbLine
 10
827.0000001392583
 20
1417.500000334843
 30
0.0
 11
827.0000001392583
 21
1419.000000334843
 31
0.0
  0
LINE
  5
15F
330
52
100
AcDbEntity
  8
0
  6
Continuous
 62
     7
100
AcDbLine
 10
823.5000001392583
 20
1417.000000334843
 30
0.0
 11
823.5000001392583
 21
1418.500000334843
 31
0.0
  0
LINE
  5
160
330
52
100
AcDbEntity
  8
0
  6
Continuous
 62
     7
100
AcDbLine
 10
827.5000001392583
 20
1415.000000334843
 30
0.0
 11
827.5000001392583
 21
1419.500000334843
 31
0.0
  0
LINE
  5
161
330
52
100
AcDbEntity
  8
0
  6
Continuous
 62
     7
100
AcDbLine
 10
827.5000001392583
 20
1395.500000334843
 30
0.0
 11
827.5000001392583
 21
1400.000000334843
 31
0.0
  0
LINE
  5
162
330
52
100
AcDbEntity
  8
0
  6
Continuous
 62
     7
100
AcDbLine
 10
827.5000001303293
 20
1410.700000334843
 30
0.0
 11
827.5000001392583
 21
1415.000000334843
 31
0.0
  0
LINE
  5
163
330
52
100
AcDbEntity
  8
0
  6
Continuous
 62
     7
100
AcDbLine
 10
827.0000001392583
 20
1397.500000334843
 30
0.0
 11
827.0000001392583
 21
1417.500000334843
 31
0.0
  0
LINE
  5
164
330
52
100
AcDbEntity
  8
0
  6
Continuous
 62
     3
100
AcDbLine
 10
828.5000001392583
 20
1395.500000334843
 30
0.0
 11
828.5000001392583
 21
1406.500000334843
 31
0.0
  0
LINE
  5
165
330
52
100
AcDbEntity
  8
0
  6
Continuous
 62
     7
100
AcDbLine
 10
823.5000001392583
 20
1396.500000334843
 30
0.0
 11
823.5000001392583
 21
1398.000000334843
 31
0.0
  0
LINE
  5
166
330
52
100
AcDbEntity
  8
0
  6
Continuous
 62
     7
100
AcDbLine
 10
827.5000001392583
 20
1400.000000334843
 30
0.0
 11
827.5000001303293
 21
1410.700000334843
 31
0.0
  0
LINE
  5
167
330
52
100
AcDbEntity
  8
0
  6
Continuous
 62
     7
100
AcDbLine
 10
823.0000001392583
 20
1396.500000334843
 30
0.0
 11
823.0000001392583
 21
1418.500000334843
 31
0.0
  0
LINE
  5
168
330
52
100
AcDbEntity
  8
0
  6
Continuous
 62
     7
100
AcDbLine
 10
828.0000001392583
 20
1410.200000367596
 30
0.0
 11
827.998588793392
 21
1410.274338631736
 31
0.0
  0
LINE
  5
169
330
52
100
AcDbEntity
  8
0
  6
Continuous
 62
     7
100
AcDbLine
 10
828.0000001392583
 20
1406.500000334843
 30
0.0
 11
828.0000001392583
 21
1410.200000367596
 31
0.0
  0
LINE
  5
16A
330
52
100
AcDbEntity
  8
0
  6
Continuous
 62
     7
100
AcDbLine
 10
827.998588793392
 20
1410.274338631736
 30
0.0
 11
828.0000001392583
 21
1415.000000334843
 31
0.0
  0
LINE
  5
16B
330
52
100
AcDbEntity
  8
0
  6
Continuous
 62
     7
100
AcDbLine
 10
828.0000001392583
 20
1400.000000334843
 30
0.0
 11
828.0000001392583
 21
1406.500000334843
 31
0.0
  0
LINE
  5
16C
330
52
100
AcDbEntity
  8
0
  6
Continuous
 62
     7
100
AcDbLine
 10
827.5000001392583
 20
1395.500000334843
 30
0.0
 11
828.0000001392583
 21
1395.500000334843
 31
0.0
  0
LINE
  5
16D
330
52
100
AcDbEntity
  8
0
  6
Continuous
 62
     7
100
AcDbLine
 10
823.0000001392583
 20
1396.500000334843
 30
0.0
 11
823.5000001392583
 21
1396.500000334843
 31
0.0
  0
LINE
  5
16E
330
52
100
AcDbEntity
  8
0
  6
Continuous
 62
     7
100
AcDbLine
 10
827.0000001392583
 20
1396.000000334843
 30
0.0
 11
827.5000001392583
 21
1395.500000334843
 31
0.0
  0
LINE
  5
16F
330
52
100
AcDbEntity
  8
0
  6
Continuous
 62
     7
100
AcDbLine
 10
823.5000001392583
 20
1398.000000334843
 30
0.0
 11
823.5000001392583
 21
1417.000000334843
 31
0.0
  0
LINE
  5
170
330
52
100
AcDbEntity
  8
0
  6
Continuous
 62
     7
100
AcDbLine
 10
822.454044787859
 20
1417.000000334843
 30
0.0
 11
822.454044787859
 21
1398.000000334843
 31
0.0
  0
LINE
  5
171
330
52
100
AcDbEntity
  8
0
  6
Continuous
 62
     7
100
AcDbLine
 10
826.5000001392583
 20
1398.000000334843
 30
0.0
 11
823.5000001392583
 21
1398.000000334843
 31
0.0
  0
LINE
  5
172
330
52
100
AcDbEntity
  8
0
  6
Continuous
 62
     3
100
AcDbLine
 10
826.5000001392583
 20
1398.000000334843
 30
0.0
 11
826.5000001392583
 21
1417.000000334843
 31
0.0
  0
LINE
  5
173
330
52
100
AcDbEntity
  8
0
  6
Continuous
 62
     7
100
AcDbLine
 10
827.5000001392583
 20
1419.500000334843
 30
0.0
 11
828.0000001392583
 21
1419.500000334843
 31
0.0
  0
LINE
  5
174
330
52
100
AcDbEntity
  8
0
  6
Continuous
 62
     7
100
AcDbLine
 10
826.5000001392583
 20
1417.000000334843
 30
0.0
 11
823.5000001392583
 21
1417.000000334843
 31
0.0
  0
LINE
  5
175
330
52
100
AcDbEntity
  8
0
  6
Continuous
 62
     7
100
AcDbLine
 10
823.0000001392583
 20
1418.500000334843
 30
0.0
 11
823.5000001392583
 21
1418.500000334843
 31
0.0
  0
LINE
  5
176
330
52
100
AcDbEntity
  8
0
  6
Continuous
 62
     7
100
AcDbLine
 10
827.0000001392583
 20
1419.000000334843
 30
0.0
 11
827.5000001392583
 21
1419.500000334843
 31
0.0
  0
LINE
  5
177
330
52
100
AcDbEntity
  8
0
  6
Continuous
 62
     7
100
AcDbLine
 10
822.454044787859
 20
1398.000000334843
 30
0.0
 11
823.0000001392583
 21
1396.500000334843
 31
0.0
  0
LINE
  5
178
330
52
100
AcDbEntity
  8
0
  6
Continuous
 62
     7
100
AcDbLine
 10
817.454044787859
 20
1417.000000334843
 30
0.0
 11
818.0000001392583
 21
1418.500000334843
 31
0.0
  0
LINE
  5
179
330
52
100
AcDbEntity
  8
0
  6
Continuous
 62
     7
100
AcDbLine
 10
822.454044787859
 20
1417.000000334843
 30
0.0
 11
823.0000001392583
 21
1418.500000334843
 31
0.0
  0
LINE
  5
17A
330
52
100
AcDbEntity
  8
0
  6
Continuous
 62
     3
100
AcDbLine
 10
828.5000001392583
 20
1406.500000334843
 30
0.0
 11
828.5000001392583
 21
1419.500000334843
 31
0.0
  0
ARC
  5
17B
330
52
100
AcDbEntity
  8
0
  6
Continuous
 62
     7
100
AcDbCircle
 10
826.5000001392583
 20
1397.500000334843
 30
0.0
 40
0.5
100
AcDbArc
 50
0.0
 51
90.0
  0
ARC
  5
17C
330
52
100
AcDbEntity
  8
0
  6
Continuous
 62
     7
100
AcDbCircle
 10
826.5000001392583
 20
1417.500000334843
 30
0.0
 40
0.5
100
AcDbArc
 50
-90.0
 51
0.0
  0
ENDBLK
  5
54
330
52
100
AcDbEntity
  8
0
100
AcDbBlockEnd
  0
BLOCK
  5
56
330
55
100
AcDbEntity
  8
0
100
AcDbBlockBegin
  2
11054_Steckdichtung-GV
 70
     0
 71
     0
 10
816.0000001392582
 20
1443.000000334843
 30
0.0
  3
11054_Steckdichtung-GV
  1

  0
LINE
  5
17D
330
55
100
AcDbEntity
  8
0
  6
Continuous
 62
     7
100
AcDbLine
 10
816.5000001392583
 20
1445.500000334843
 30
0.0
 11
817.454044787859
 21
1445.500000334843
 31
0.0
  0
LINE
  5
17E
330
55
100
AcDbEntity
  8
0
  6
Continuous
 62
     7
100
AcDbLine
 10
816.0000001392583
 20
1446.000000334843
 30
0.0
 11
816.5000001392583
 21
1445.500000334843
 31
0.0
  0
LINE
  5
17F
330
55
100
AcDbEntity
  8
0
  6
Continuous
 62
     7
100
AcDbLine
 10
816.5000001392583
 20
1464.500000334843
 30
0.0
 11
816.5000001392583
 21
1456.65238148908
 31
0.0
  0
LINE
  5
180
330
55
100
AcDbEntity
  8
0
  6
Continuous
 62
     7
100
AcDbLine
 10
816.5000001392583
 20
1453.347619180605
 30
0.0
 11
816.5000001392583
 21
1445.500000334843
 31
0.0
  0
LINE
  5
181
330
55
100
AcDbEntity
  8
0
  6
Continuous
 62
     7
100
AcDbLine
 10
816.0000001392583
 20
1464.000000334843
 30
0.0
 11
816.0000001392582
 21
1462.500000334843
 31
0.0
  0
LINE
  5
182
330
55
100
AcDbEntity
  8
0
  6
Continuous
 62
     7
100
AcDbLine
 10
816.0000001392582
 20
1447.500000334843
 30
0.0
 11
816.0000001392583
 21
1446.000000334843
 31
0.0
  0
LINE
  5
183
330
55
100
AcDbEntity
  8
0
  6
Continuous
 62
     7
100
AcDbLine
 10
816.0000001392582
 20
1456.634921104334
 30
0.0
 11
816.0000001392582
 21
1462.500000334843
 31
0.0
  0
LINE
  5
184
330
55
100
AcDbEntity
  8
0
  6
Continuous
 62
     7
100
AcDbLine
 10
816.0000001392582
 20
1447.500000334843
 30
0.0
 11
816.0000001392582
 21
1453.365079565351
 31
0.0
  0
LINE
  5
185
330
55
100
AcDbEntity
  8
0
  6
Continuous
 62
     7
100
AcDbLine
 10
816.5000001392583
 20
1464.500000334843
 30
0.0
 11
817.454044787859
 21
1464.500000334843
 31
0.0
  0
LINE
  5
186
330
55
100
AcDbEntity
  8
0
  6
Continuous
 62
     7
100
AcDbLine
 10
816.0000001392583
 20
1464.000000334843
 30
0.0
 11
816.5000001392583
 21
1464.500000334843
 31
0.0
  0
LINE
  5
187
330
55
100
AcDbEntity
  8
0
  6
Continuous
 62
     3
100
AcDbLine
 10
828.5000001392583
 20
1443.000000334843
 30
0.0
 11
828.5000001392583
 21
1467.000000334843
 31
0.0
  0
LINE
  5
188
330
55
100
AcDbEntity
  8
0
  6
Continuous
 62
     7
100
AcDbLine
 10
826.5000001392583
 20
1464.500000334843
 30
0.0
 11
823.5000001392583
 21
1464.500000334843
 31
0.0
  0
LINE
  5
189
330
55
100
AcDbEntity
  8
0
  6
Continuous
 62
     7
100
AcDbLine
 10
823.5000001392583
 20
1464.500000334843
 30
0.0
 11
823.5000001392583
 21
1466.000000334843
 31
0.0
  0
LINE
  5
18A
330
55
100
AcDbEntity
  8
0
  6
Continuous
 62
     3
100
AcDbLine
 10
826.5000001392583
 20
1457.001589183998
 30
0.0
 11
826.5000001392583
 21
1464.500000334843
 31
0.0
  0
LINE
  5
18B
330
55
100
AcDbEntity
  8
0
  6
Continuous
 62
     7
100
AcDbLine
 10
827.5000001392583
 20
1457.03650995349
 30
0.0
 11
827.5000001392583
 21
1462.500000334843
 31
0.0
  0
LINE
  5
18C
330
55
100
AcDbEntity
  8
0
  6
Continuous
 62
     7
100
AcDbLine
 10
828.0000001392583
 20
1457.536814725639
 30
0.0
 11
828.0000001392583
 21
1462.500000334843
 31
0.0
  0
LINE
  5
18D
330
55
100
AcDbEntity
  8
0
  6
Continuous
 62
     7
100
AcDbLine
 10
828.0000001392583
 20
1456.291348966401
 30
0.0
 11
828.0000001392583
 21
1457.536814725639
 31
0.0
  0
LINE
  5
18E
330
55
100
AcDbEntity
  8
0
  6
Continuous
 62
     7
100
AcDbLine
 10
817.454044787859
 20
1464.500000334843
 30
0.0
 11
817.454044787859
 21
1456.685697462339
 31
0.0
  0
LINE
  5
18F
330
55
100
AcDbEntity
  8
0
  6
Continuous
 62
     7
100
AcDbLine
 10
822.454044787859
 20
1464.500000334843
 30
0.0
 11
818.5000001392583
 21
1464.500000334843
 31
0.0
  0
LINE
  5
190
330
55
100
AcDbEntity
  8
0
  6
Continuous
 62
     7
100
AcDbLine
 10
818.5000001392583
 20
1464.500000334843
 30
0.0
 11
818.5000001392583
 21
1466.000000334843
 31
0.0
  0
LINE
  5
191
330
55
100
AcDbEntity
  8
0
  6
Continuous
 62
     7
100
AcDbLine
 10
822.454044787859
 20
1464.500000334843
 30
0.0
 11
822.454044787859
 21
1456.860301309798
 31
0.0
  0
LINE
  5
192
330
55
100
AcDbEntity
  8
0
  6
Continuous
 62
     7
100
AcDbLine
 10
823.5000001392583
 20
1456.896826875523
 30
0.0
 11
823.5000001392583
 21
1464.500000334843
 31
0.0
  0
LINE
  5
193
330
55
100
AcDbEntity
  8
0
  6
Continuous
 62
     7
100
AcDbLine
 10
818.0000001392583
 20
1466.000000334843
 30
0.0
 11
818.0000001392583
 21
1462.500000334843
 31
0.0
  0
LINE
  5
194
330
55
100
AcDbEntity
  8
0
  6
Continuous
 62
     7
100
AcDbLine
 10
818.0000001392583
 20
1456.704762643318
 30
0.0
 11
818.0000001392583
 21
1462.500000334843
 31
0.0
  0
LINE
  5
195
330
55
100
AcDbEntity
  8
0
  6
Continuous
 62
     7
100
AcDbLine
 10
823.0000001392583
 20
1456.879366490777
 30
0.0
 11
823.0000001392583
 21
1466.000000334843
 31
0.0
  0
LINE
  5
196
330
55
100
AcDbEntity
  8
0
  6
Continuous
 62
     7
100
AcDbLine
 10
818.5000001392583
 20
1456.722223028064
 30
0.0
 11
818.5000001392583
 21
1464.500000334843
 31
0.0
  0
LINE
  5
197
330
55
100
AcDbEntity
  8
0
  6
Continuous
 62
     7
100
AcDbLine
 10
827.5000001392583
 20
1462.500000334843
 30
0.0
 11
827.5000001392583
 21
1467.000000334843
 31
0.0
  0
LINE
  5
198
330
55
100
AcDbEntity
  8
0
  6
Continuous
 62
     7
100
AcDbLine
 10
827.0000001392583
 20
1465.000000334843
 30
0.0
 11
827.0000001392583
 21
1466.500000334843
 31
0.0
  0
LINE
  5
199
330
55
100
AcDbEntity
  8
0
  6
Continuous
 62
     7
100
AcDbLine
 10
827.0000001392583
 20
1457.019049568744
 30
0.0
 11
827.0000001392583
 21
1465.000000334843
 31
0.0
  0
LINE
  5
19A
330
55
100
AcDbEntity
  8
0
  6
Continuous
 62
     7
100
AcDbLine
 10
818.0000001392583
 20
1466.000000334843
 30
0.0
 11
818.5000001392583
 21
1466.000000334843
 31
0.0
  0
LINE
  5
19B
330
55
100
AcDbEntity
  8
0
  6
Continuous
 62
     7
100
AcDbLine
 10
827.5000001392583
 20
1467.000000334843
 30
0.0
 11
828.0000001392583
 21
1467.000000334843
 31
0.0
  0
LINE
  5
19C
330
55
100
AcDbEntity
  8
0
  6
Continuous
 62
     7
100
AcDbLine
 10
823.0000001392583
 20
1466.000000334843
 30
0.0
 11
823.5000001392583
 21
1466.000000334843
 31
0.0
  0
LINE
  5
19D
330
55
100
AcDbEntity
  8
0
  6
Continuous
 62
     7
100
AcDbLine
 10
827.0000001392583
 20
1466.500000334843
 30
0.0
 11
827.5000001392583
 21
1467.000000334843
 31
0.0
  0
LINE
  5
19E
330
55
100
AcDbEntity
  8
0
  6
Continuous
 62
     7
100
AcDbLine
 10
822.454044787859
 20
1445.500000334843
 30
0.0
 11
818.5000001392583
 21
1445.500000334843
 31
0.0
  0
LINE
  5
19F
330
55
100
AcDbEntity
  8
0
  6
Continuous
 62
     7
100
AcDbLine
 10
818.0000001392583
 20
1447.500000334843
 30
0.0
 11
818.0000001392583
 21
1453.295238026368
 31
0.0
  0
LINE
  5
1A0
330
55
100
AcDbEntity
  8
0
  6
Continuous
 62
     7
100
AcDbLine
 10
818.0000001392583
 20
1444.000000334843
 30
0.0
 11
818.5000001392583
 21
1444.000000334843
 31
0.0
  0
LINE
  5
1A1
330
55
100
AcDbEntity
  8
0
  6
Continuous
 62
     7
100
AcDbLine
 10
818.5000001392583
 20
1444.000000334843
 30
0.0
 11
818.5000001392583
 21
1445.500000334843
 31
0.0
  0
LINE
  5
1A2
330
55
100
AcDbEntity
  8
0
  6
Continuous
 62
     7
100
AcDbLine
 10
818.0000001392583
 20
1447.500000334843
 30
0.0
 11
818.0000001392583
 21
1444.000000334843
 31
0.0
  0
LINE
  5
1A3
330
55
100
AcDbEntity
  8
0
  6
Continuous
 62
     7
100
AcDbLine
 10
818.5000001392583
 20
1445.500000334843
 30
0.0
 11
818.5000001392583
 21
1453.277777641622
 31
0.0
  0
LINE
  5
1A4
330
55
100
AcDbEntity
  8
0
  6
Continuous
 62
     7
100
AcDbLine
 10
817.454044787859
 20
1453.314303207347
 30
0.0
 11
817.454044787859
 21
1445.500000334843
 31
0.0
  0
LINE
  5
1A5
330
55
100
AcDbEntity
  8
0
  6
Continuous
 62
     7
100
AcDbLine
 10
822.454044787859
 20
1453.139699359888
 30
0.0
 11
822.454044787859
 21
1445.500000334843
 31
0.0
  0
LINE
  5
1A6
330
55
100
AcDbEntity
  8
0
  6
Continuous
 62
     7
100
AcDbLine
 10
827.0000001392583
 20
1443.500000334843
 30
0.0
 11
827.0000001392583
 21
1445.000000334843
 31
0.0
  0
LINE
  5
1A7
330
55
100
AcDbEntity
  8
0
  6
Continuous
 62
     7
100
AcDbLine
 10
828.0000001392583
 20
1453.708651703285
 30
0.0
 11
828.0000001392583
 21
1454.70728272218
 31
0.0
  0
LINE
  5
1A8
330
55
100
AcDbEntity
  8
0
  6
Continuous
 62
     7
100
AcDbLine
 10
827.5000001392583
 20
1443.000000334843
 30
0.0
 11
828.0000001392583
 21
1443.000000334843
 31
0.0
  0
LINE
  5
1A9
330
55
100
AcDbEntity
  8
0
  6
Continuous
 62
     7
100
AcDbLine
 10
827.0000001392583
 20
1443.500000334843
 30
0.0
 11
827.5000001392583
 21
1443.000000334843
 31
0.0
  0
LINE
  5
1AA
330
55
100
AcDbEntity
  8
0
  6
Continuous
 62
     7
100
AcDbLine
 10
828.0000001392583
 20
1455.292717947505
 30
0.0
 11
828.0000001392583
 21
1456.291348966401
 31
0.0
  0
LINE
  5
1AB
330
55
100
AcDbEntity
  8
0
  6
Continuous
 62
     7
100
AcDbLine
 10
828.0000001392583
 20
1454.70728272218
 30
0.0
 11
828.0000001392583
 21
1455.292717947505
 31
0.0
  0
LINE
  5
1AC
330
55
100
AcDbEntity
  8
0
  6
Continuous
 62
     7
100
AcDbLine
 10
827.0000001392583
 20
1445.000000334843
 30
0.0
 11
827.0000001392583
 21
1452.980951100942
 31
0.0
  0
LINE
  5
1AD
330
55
100
AcDbEntity
  8
0
  6
Continuous
 62
     7
100
AcDbLine
 10
827.5000001392583
 20
1443.000000334843
 30
0.0
 11
827.5000001392583
 21
1447.500000334843
 31
0.0
  0
LINE
  5
1AE
330
55
100
AcDbEntity
  8
0
  6
Continuous
 62
     7
100
AcDbLine
 10
826.5000001392583
 20
1445.500000334843
 30
0.0
 11
823.5000001392583
 21
1445.500000334843
 31
0.0
  0
LINE
  5
1AF
330
55
100
AcDbEntity
  8
0
  6
Continuous
 62
     7
100
AcDbLine
 10
827.5000001392583
 20
1447.500000334843
 30
0.0
 11
827.5000001392583
 21
1452.963490716196
 31
0.0
  0
LINE
  5
1B0
330
55
100
AcDbEntity
  8
0
  6
Continuous
 62
     7
100
AcDbLine
 10
828.0000001392583
 20
1452.94603033145
 30
0.0
 11
828.0000001392583
 21
1453.708651703285
 31
0.0
  0
LINE
  5
1B1
330
55
100
AcDbEntity
  8
0
  6
Continuous
 62
     3
100
AcDbLine
 10
826.5000001392583
 20
1445.500000334843
 30
0.0
 11
826.5000001392583
 21
1452.998411485688
 31
0.0
  0
LINE
  5
1B2
330
55
100
AcDbEntity
  8
0
  6
Continuous
 62
     7
100
AcDbLine
 10
828.0000001392583
 20
1447.500000334843
 30
0.0
 11
828.0000001392583
 21
1452.94603033145
 31
0.0
  0
LINE
  5
1B3
330
55
100
AcDbEntity
  8
0
  6
Continuous
 62
     7
100
AcDbLine
 10
823.5000001392583
 20
1444.000000334843
 30
0.0
 11
823.5000001392583
 21
1445.500000334843
 31
0.0
  0
LINE
  5
1B4
330
55
100
AcDbEntity
  8
0
  6
Continuous
 62
     7
100
AcDbLine
 10
823.5000001392583
 20
1445.500000334843
 30
0.0
 11
823.5000001392583
 21
1453.103173794163
 31
0.0
  0
LINE
  5
1B5
330
55
100
AcDbEntity
  8
0
  6
Continuous
 62
     7
100
AcDbLine
 10
823.0000001392583
 20
1444.000000334843
 30
0.0
 11
823.5000001392583
 21
1444.000000334843
 31
0.0
  0
LINE
  5
1B6
330
55
100
AcDbEntity
  8
0
  6
Continuous
 62
     7
100
AcDbLine
 10
823.0000001392583
 20
1444.000000334843
 30
0.0
 11
823.0000001392583
 21
1453.120634178909
 31
0.0
  0
LINE
  5
1B7
330
55
100
AcDbEntity
  8
0
  6
Continuous
 62
     7
100
AcDbLine
 10
817.454044787859
 20
1464.500000334843
 30
0.0
 11
818.0000001392583
 21
1466.000000334843
 31
0.0
  0
LINE
  5
1B8
330
55
100
AcDbEntity
  8
0
  6
Continuous
 62
     7
100
AcDbLine
 10
822.454044787859
 20
1464.500000334843
 30
0.0
 11
823.0000001392583
 21
1466.000000334843
 31
0.0
  0
LINE
  5
1B9
330
55
100
AcDbEntity
  8
0
  6
Continuous
 62
     7
100
AcDbLine
 10
822.454044787859
 20
1445.500000334843
 30
0.0
 11
823.0000001392583
 21
1444.000000334843
 31
0.0
  0
LINE
  5
1BA
330
55
100
AcDbEntity
  8
0
  6
Continuous
 62
     7
100
AcDbLine
 10
817.454044787859
 20
1445.500000334843
 30
0.0
 11
818.0000001392583
 21
1444.000000334843
 31
0.0
  0
ARC
  5
1BB
330
55
100
AcDbEntity
  8
0
  6
Continuous
 62
     7
100
AcDbCircle
 10
826.5000001392583
 20
1465.000000334843
 30
0.0
 40
0.5
100
AcDbArc
 50
-90.0
 51
0.0
  0
ARC
  5
1BC
330
55
100
AcDbEntity
  8
0
  6
Continuous
 62
     7
100
AcDbCircle
 10
826.5000001392583
 20
1445.000000334843
 30
0.0
 40
0.5
100
AcDbArc
 50
0.0
 51
90.0
  0
ENDBLK
  5
57
330
55
100
AcDbEntity
  8
0
100
AcDbBlockEnd
  0
BLOCK
  5
5B
330
58
100
AcDbEntity
  8
0
100
AcDbBlockBegin
  2
Bgr_01097D
 70
     0
 71
     0
 10
816.0000001392582
 20
1395.500000334843
 30
0.0
  3
Bgr_01097D
  1

  0
INSERT
  5
59
330
58
100
AcDbEntity
  8
0
100
AcDbBlockReference
  2
11054_Steckdichtung-GV_1
 10
816.0000001392582
 20
1395.500000334843
 30
0.0
  0
INSERT
  5
5A
330
58
100
AcDbEntity
  8
0
100
AcDbBlockReference
  2
11054_Steckdichtung-GV
 10
816.0000001392582
 20
1443.000000334843
 30
0.0
  0
ENDBLK
  5
5C
330
58
100
AcDbEntity
  8
0
100
AcDbBlockEnd
  0
BLOCK
  5
5E
330
5D
100
AcDbEntity
  8
0
100
AcDbBlockBegin
  2
10954_Einsatz_GV__4
 70
     0
 71
     0
 10
815.0000001392582
 20
1392.500000334843
 30
0.0
  3
10954_Einsatz_GV__4
  1

  0
LINE
  5
1BD
330
5D
100
AcDbEntity
  8
1
  6
DOT_CENTER
 62
     2
100
AcDbLine
 10
815.0000001392582
 20
1455.000000334843
 30
0.0
 11
826.5000001392582
 21
1455.000000334843
 31
0.0
  0
LINE
  5
1BE
330
5D
100
AcDbEntity
  8
0
  6
Continuous
 62
     7
100
AcDbLine
 10
845.0000001392583
 20
1394.500000334843
 30
0.0
 11
845.0000001392583
 21
1394.799335911934
 31
0.0
  0
LINE
  5
1BF
330
5D
100
AcDbEntity
  8
0
  6
Continuous
 62
     7
100
AcDbLine
 10
845.0000001392583
 20
1394.799335911934
 30
0.0
 11
845.0000001392583
 21
1395.000000334843
 31
0.0
  0
LINE
  5
1C0
330
5D
100
AcDbEntity
  8
0
  6
Continuous
 62
     7
100
AcDbLine
 10
845.0000001392583
 20
1394.050000334843
 30
0.0
 11
845.0000001392583
 21
1394.500000334843
 31
0.0
  0
LINE
  5
1C1
330
5D
100
AcDbEntity
  8
0
  6
Continuous
 62
     3
100
AcDbLine
 10
817.0000001392583
 20
1425.850222358836
 30
0.0
 11
816.8779157484109
 21
1425.858759328543
 31
0.0
  0
LINE
  5
1C2
330
5D
100
AcDbEntity
  8
0
  6
Continuous
 62
     7
100
AcDbLine
 10
828.0000001392583
 20
1462.500000334843
 30
0.0
 11
828.0000001392583
 21
1467.312540690582
 31
0.0
  0
LINE
  5
1C3
330
5D
100
AcDbEntity
  8
0
  6
Continuous
 62
     7
100
AcDbLine
 10
827.9999097952422
 20
1480.49049588737
 30
0.0
 11
828.0000001392583
 21
1477.299899000979
 31
0.0
  0
LINE
  5
1C4
330
5D
100
AcDbEntity
  8
0
  6
Continuous
 62
     7
100
AcDbLine
 10
828.0000001392583
 20
1483.000000334843
 30
0.0
 11
827.9999097952422
 21
1480.49049588737
 31
0.0
  0
LINE
  5
1C5
330
5D
100
AcDbEntity
  8
0
  6
Continuous
 62
     7
100
AcDbLine
 10
828.0000001392583
 20
1477.299899000979
 30
0.0
 11
828.0000001392583
 21
1469.500000334843
 31
0.0
  0
LINE
  5
1C6
330
5D
100
AcDbEntity
  8
0
  6
Continuous
 62
     7
100
AcDbLine
 10
845.0000001392583
 20
1482.775000334843
 30
0.0
 11
845.0000001392583
 21
1481.950000334843
 31
0.0
  0
LINE
  5
1C7
330
5D
100
AcDbEntity
  8
0
  6
Continuous
 62
     7
100
AcDbLine
 10
845.0000001392583
 20
1483.500000334843
 30
0.0
 11
845.0000001392583
 21
1482.775000334843
 31
0.0
  0
LINE
  5
1C8
330
5D
100
AcDbEntity
  8
0
  6
Continuous
 62
     7
100
AcDbLine
 10
845.0000001392583
 20
1469.596000334843
 30
0.0
 11
845.0000001392583
 21
1469.500000334843
 31
0.0
  0
LINE
  5
1C9
330
5D
100
AcDbEntity
  8
0
  6
Continuous
 62
     7
100
AcDbLine
 10
845.0000001392583
 20
1481.950000334843
 30
0.0
 11
845.0000001392583
 21
1481.500000334843
 31
0.0
  0
LINE
  5
1CA
330
5D
100
AcDbEntity
  8
0
  6
Continuous
 62
     7
100
AcDbLine
 10
845.0000001392583
 20
1481.500000334843
 30
0.0
 11
845.0000001392583
 21
1478.581443423235
 31
0.0
  0
LINE
  5
1CB
330
5D
100
AcDbEntity
  8
0
  6
Continuous
 62
     7
100
AcDbLine
 10
845.0000001392583
 20
1478.581443423235
 30
0.0
 11
845.0000001392583
 21
1469.596000334843
 31
0.0
  0
LINE
  5
1CC
330
5D
100
AcDbEntity
  8
0
  6
Continuous
 62
     7
100
AcDbLine
 10
828.5000001392583
 20
1483.500000334843
 30
0.0
 11
845.0000001392583
 21
1483.500000334843
 31
0.0
  0
LINE
  5
1CD
330
5D
100
AcDbEntity
  8
0
  6
Continuous
 62
     3
100
AcDbLine
 10
828.5000001392583
 20
1483.500000334843
 30
0.0
 11
828.5000001392583
 21
1469.500000334843
 31
0.0
  0
LINE
  5
1CE
330
5D
100
AcDbEntity
  8
0
  6
Continuous
 62
     3
100
AcDbLine
 10
844.3500001392583
 20
1469.500000334843
 30
0.0
 11
844.4500001392582
 21
1469.500000334843
 31
0.0
  0
LINE
  5
1CF
330
5D
100
AcDbEntity
  8
0
  6
Continuous
 62
     3
100
AcDbLine
 10
830.2900001392583
 20
1469.500000334843
 30
0.0
 11
844.3500001392583
 21
1469.500000334843
 31
0.0
  0
LINE
  5
1D0
330
5D
100
AcDbEntity
  8
0
  6
Continuous
 62
     7
100
AcDbLine
 10
845.0000001392583
 20
1467.500000334843
 30
0.0
 11
845.0000001392583
 21
1467.050000334843
 31
0.0
  0
LINE
  5
1D1
330
5D
100
AcDbEntity
  8
0
  6
Continuous
 62
     7
100
AcDbLine
 10
845.0000001392583
 20
1467.500000334843
 30
0.0
 11
845.0000001392583
 21
1469.500000334843
 31
0.0
  0
LINE
  5
1D2
330
5D
100
AcDbEntity
  8
0
  6
Continuous
 62
     7
100
AcDbLine
 10
845.0000001392583
 20
1467.050000334843
 30
0.0
 11
845.0000001392583
 21
1466.775000334843
 31
0.0
  0
LINE
  5
1D3
330
5D
100
AcDbEntity
  8
0
  6
Continuous
 62
     7
100
AcDbLine
 10
845.0000001392583
 20
1466.775000334843
 30
0.0
 11
845.0000001392583
 21
1465.950000334843
 31
0.0
  0
LINE
  5
1D4
330
5D
100
AcDbEntity
  8
0
  6
Continuous
 62
     7
100
AcDbLine
 10
845.0000001392583
 20
1465.950000334843
 30
0.0
 11
845.0000001392583
 21
1465.500000334843
 31
0.0
  0
LINE
  5
1D5
330
5D
100
AcDbEntity
  8
0
  6
Continuous
 62
     7
100
AcDbLine
 10
845.0000001392583
 20
1465.500000334843
 30
0.0
 11
845.0000001392583
 21
1456.588000334843
 31
0.0
  0
LINE
  5
1D6
330
5D
100
AcDbEntity
  8
0
  6
Continuous
 62
     3
100
AcDbLine
 10
844.4500001392582
 20
1469.500000334843
 30
0.0
 11
845.0000001392583
 21
1469.500000334843
 31
0.0
  0
LINE
  5
1D7
330
5D
100
AcDbEntity
  8
0
  6
Continuous
 62
     7
100
AcDbLine
 10
815.0000001392582
 20
1456.600000334843
 30
0.0
 11
827.5174498876095
 21
1457.037119312129
 31
0.0
  0
LINE
  5
1D8
330
5D
100
AcDbEntity
  8
0
  6
Continuous
 62
     7
100
AcDbLine
 10
845.0000001392583
 20
1456.588000334843
 30
0.0
 11
845.0000001392583
 21
1456.500000334843
 31
0.0
  0
LINE
  5
1D9
330
5D
100
AcDbEntity
  8
0
  6
Continuous
 62
     7
100
AcDbLine
 10
845.0000001392583
 20
1456.500000334843
 30
0.0
 11
845.0000001392583
 21
1441.26184716481
 31
0.0
  0
LINE
  5
1DA
330
5D
100
AcDbEntity
  8
0
  6
Continuous
 62
     7
100
AcDbLine
 10
815.0000001392582
 20
1453.400000334843
 30
0.0
 11
828.0000001392583
 21
1452.94603033145
 31
0.0
  0
LINE
  5
1DB
330
5D
100
AcDbEntity
  8
0
  6
Continuous
 62
     7
100
AcDbLine
 10
816.8500801949115
 20
1455.59101334076
 30
0.0
 11
815.4912739377362
 21
1455.581659706826
 31
0.0
  0
LINE
  5
1DC
330
5D
100
AcDbEntity
  8
0
  6
Continuous
 62
     7
100
AcDbLine
 10
827.5174498876095
 20
1455.791653552891
 30
0.0
 11
816.8500801949115
 21
1455.59101334076
 31
0.0
  0
LINE
  5
1DD
330
5D
100
AcDbEntity
  8
0
  6
Continuous
 62
     7
100
AcDbLine
 10
815.0000001392582
 20
1447.767949527274
 30
0.0
 11
816.0000001392582
 21
1447.500000334843
 31
0.0
  0
LINE
  5
1DE
330
5D
100
AcDbEntity
  8
0
  6
Continuous
 62
     7
100
AcDbLine
 10
815.0000001392582
 20
1455.081735859218
 30
0.0
 11
815.0000001392582
 21
1454.918264810468
 31
0.0
  0
LINE
  5
1DF
330
5D
100
AcDbEntity
  8
0
  6
Continuous
 62
     7
100
AcDbLine
 10
815.0000001392582
 20
1453.400000334843
 30
0.0
 11
815.0000001392582
 21
1447.767949527274
 31
0.0
  0
LINE
  5
1E0
330
5D
100
AcDbEntity
  8
0
  6
Continuous
 62
     7
100
AcDbLine
 10
815.0000001392582
 20
1453.400000334843
 30
0.0
 11
815.0000001392582
 21
1454.918264810468
 31
0.0
  0
LINE
  5
1E1
330
5D
100
AcDbEntity
  8
0
  6
Continuous
 62
     7
100
AcDbLine
 10
815.0000001392582
 20
1455.081735859218
 30
0.0
 11
815.0000001392582
 21
1456.600000334843
 31
0.0
  0
LINE
  5
1E2
330
5D
100
AcDbEntity
  8
0
  6
Continuous
 62
     7
100
AcDbLine
 10
815.0000001392582
 20
1447.767949527274
 30
0.0
 11
815.0000001392582
 21
1427.355105411229
 31
0.0
  0
LINE
  5
1E3
330
5D
100
AcDbEntity
  8
0
  6
Continuous
 62
     3
100
AcDbLine
 10
827.5435780106321
 20
1455.292717947505
 30
0.0
 11
816.8256886537629
 21
1455.105636492896
 31
0.0
  0
LINE
  5
1E4
330
5D
100
AcDbEntity
  8
0
  6
Continuous
 62
     7
100
AcDbLine
 10
816.8605405859847
 20
1454.39444032461
 30
0.0
 11
815.4912739359831
 21
1454.41834096289
 31
0.0
  0
LINE
  5
1E5
330
5D
100
AcDbEntity
  8
0
  6
Continuous
 62
     3
100
AcDbLine
 10
827.5435780106321
 20
1454.70728272218
 30
0.0
 11
816.8256886537629
 21
1454.894364177241
 31
0.0
  0
LINE
  5
1E6
330
5D
100
AcDbEntity
  8
0
  6
Continuous
 62
     3
100
AcDbLine
 10
816.8256886537629
 20
1455.105636492896
 30
0.0
 11
816.8256886537629
 21
1454.894364177241
 31
0.0
  0
LINE
  5
1E7
330
5D
100
AcDbEntity
  8
0
  6
Continuous
 62
     7
100
AcDbLine
 10
827.508726342477
 20
1454.208575550863
 30
0.0
 11
816.8605405859847
 21
1454.39444032461
 31
0.0
  0
LINE
  5
1E8
330
5D
100
AcDbEntity
  8
0
  6
Continuous
 62
     7
100
AcDbLine
 10
828.0000001392583
 20
1428.300000334843
 30
0.0
 11
828.0000001392583
 21
1447.500000334843
 31
0.0
  0
LINE
  5
1E9
330
5D
100
AcDbEntity
  8
0
  6
Continuous
 62
     7
100
AcDbLine
 10
845.0000001392583
 20
1429.387505077772
 30
0.0
 11
845.0000001392583
 21
1426.650000334843
 31
0.0
  0
LINE
  5
1EA
330
5D
100
AcDbEntity
  8
0
  6
Continuous
 62
     7
100
AcDbLine
 10
845.0000001392583
 20
1441.26184716481
 30
0.0
 11
845.0000001392583
 21
1429.387505077772
 31
0.0
  0
LINE
  5
1EB
330
5D
100
AcDbEntity
  8
0
  6
Continuous
 62
     3
100
AcDbLine
 10
827.6886278243919
 20
1428.300000334843
 30
0.0
 11
828.0000001392583
 21
1428.300000334843
 31
0.0
  0
LINE
  5
1EC
330
5D
100
AcDbEntity
  8
0
  6
Continuous
 62
     7
100
AcDbLine
 10
817.3000001392583
 20
1428.000000334843
 30
0.0
 11
817.7000001392582
 21
1428.000000334843
 31
0.0
  0
LINE
  5
1ED
330
5D
100
AcDbEntity
  8
0
  6
Continuous
 62
     7
100
AcDbLine
 10
817.7000001392582
 20
1428.000000334843
 30
0.0
 11
827.7000001392582
 21
1428.000000334843
 31
0.0
  0
LINE
  5
1EE
330
5D
100
AcDbEntity
  8
0
  6
Continuous
 62
     3
100
AcDbLine
 10
827.6886278243919
 20
1428.300000334843
 30
0.0
 11
818.0000001392583
 21
1428.300000334843
 31
0.0
  0
LINE
  5
1EF
330
5D
100
AcDbEntity
  8
0
  6
Continuous
 62
     3
100
AcDbLine
 10
817.0000001392583
 20
1427.700000334843
 30
0.0
 11
827.8146068808313
 21
1427.700000334843
 31
0.0
  0
LINE
  5
1F0
330
5D
100
AcDbEntity
  8
0
  6
Continuous
 62
     3
100
AcDbLine
 10
815.482550390907
 20
1447.638650577037
 30
0.0
 11
815.4825503903338
 21
1427.355105469915
 31
0.0
  0
LINE
  5
1F1
330
5D
100
AcDbEntity
  8
0
  6
Continuous
 62
     7
100
AcDbLine
 10
845.0000001392583
 20
1392.500000334843
 30
0.0
 11
828.5000001392583
 21
1392.500000334843
 31
0.0
  0
LINE
  5
1F2
330
5D
100
AcDbEntity
  8
0
  6
Continuous
 62
     7
100
AcDbLine
 10
845.0000001392583
 20
1392.500000334843
 30
0.0
 11
845.0000001392583
 21
1393.225000334843
 31
0.0
  0
LINE
  5
1F3
330
5D
100
AcDbEntity
  8
0
  6
Continuous
 62
     7
100
AcDbLine
 10
845.0000001392583
 20
1393.225000334843
 30
0.0
 11
845.0000001392583
 21
1394.050000334843
 31
0.0
  0
LINE
  5
1F4
330
5D
100
AcDbEntity
  8
0
  6
Continuous
 62
     7
100
AcDbLine
 10
845.0000001392583
 20
1397.418557246451
 30
0.0
 11
845.0000001392583
 21
1395.000000334843
 31
0.0
  0
LINE
  5
1F5
330
5D
100
AcDbEntity
  8
0
  6
Continuous
 62
     7
100
AcDbLine
 10
845.0000001392583
 20
1406.404000334843
 30
0.0
 11
845.0000001392583
 21
1397.418557246451
 31
0.0
  0
LINE
  5
1F6
330
5D
100
AcDbEntity
  8
0
  6
Continuous
 62
     3
100
AcDbLine
 10
844.3500001392583
 20
1406.500000334843
 30
0.0
 11
828.5000001392583
 21
1406.500000334843
 31
0.0
  0
LINE
  5
1F7
330
5D
100
AcDbEntity
  8
0
  6
Continuous
 62
     7
100
AcDbLine
 10
845.0000001392583
 20
1426.650000334843
 30
0.0
 11
845.0000001392583
 21
1424.150000334843
 31
0.0
  0
LINE
  5
1F8
330
5D
100
AcDbEntity
  8
0
  6
Continuous
 62
     7
100
AcDbLine
 10
817.0000001392583
 20
1425.350221615067
 30
0.0
 11
816.860487191768
 21
1425.35997731071
 31
0.0
  0
LINE
  5
1F9
330
5D
100
AcDbEntity
  8
0
  6
Continuous
 62
     3
100
AcDbLine
 10
820.0000001392583
 20
1420.700000334843
 30
0.0
 11
818.0000001392583
 21
1420.700000334843
 31
0.0
  0
LINE
  5
1FA
330
5D
100
AcDbEntity
  8
0
  6
Continuous
 62
     7
100
AcDbLine
 10
815.0000001392582
 20
1414.732051142412
 30
0.0
 11
816.0000001392582
 21
1415.000000334843
 31
0.0
  0
LINE
  5
1FB
330
5D
100
AcDbEntity
  8
0
  6
Continuous
 62
     7
100
AcDbLine
 10
815.0000001392582
 20
1462.232051142412
 30
0.0
 11
816.0000001392582
 21
1462.500000334843
 31
0.0
  0
LINE
  5
1FC
330
5D
100
AcDbEntity
  8
0
  6
Continuous
 62
     7
100
AcDbLine
 10
815.0000001392582
 20
1456.600000334843
 30
0.0
 11
815.0000001392582
 21
1462.232051142412
 31
0.0
  0
LINE
  5
1FD
330
5D
100
AcDbEntity
  8
0
  6
Continuous
 62
     7
100
AcDbLine
 10
816.0000001392582
 20
1456.634921104334
 30
0.0
 11
816.0000001392582
 21
1462.500000334843
 31
0.0
  0
LINE
  5
1FE
330
5D
100
AcDbEntity
  8
0
  6
Continuous
 62
     7
100
AcDbLine
 10
816.0000001392582
 20
1447.500000334843
 30
0.0
 11
816.0000001392582
 21
1453.365079565351
 31
0.0
  0
LINE
  5
1FF
330
5D
100
AcDbEntity
  8
0
  6
Continuous
 62
     7
100
AcDbLine
 10
826.0000001392583
 20
1480.000000404938
 30
0.0
 11
827.5000001392583
 21
1480.000000404938
 31
0.0
  0
LINE
  5
200
330
5D
100
AcDbEntity
  8
0
  6
Continuous
 62
     7
100
AcDbLine
 10
818.0000001392583
 20
1472.000000404938
 30
0.0
 11
818.0000001392583
 21
1466.000000334843
 31
0.0
  0
LINE
  5
201
330
5D
100
AcDbEntity
  8
0
  6
Continuous
 62
     7
100
AcDbLine
 10
818.0000001392583
 20
1444.000000334843
 30
0.0
 11
818.0000001392583
 21
1428.300000334843
 31
0.0
  0
LINE
  5
202
330
5D
100
AcDbEntity
  8
0
  6
Continuous
 62
     3
100
AcDbLine
 10
828.5000001392583
 20
1419.500000334843
 30
0.0
 11
828.5000001392583
 21
1443.000000334843
 31
0.0
  0
LINE
  5
203
330
5D
100
AcDbEntity
  8
0
  6
Continuous
 62
     7
100
AcDbLine
 10
828.0000001392583
 20
1415.000000334843
 30
0.0
 11
828.0000001392583
 21
1420.700000334843
 31
0.0
  0
LINE
  5
204
330
5D
100
AcDbEntity
  8
0
  6
Continuous
 62
     7
100
AcDbLine
 10
827.9831272246536
 20
1427.700000334843
 30
0.0
 11
828.0000001392583
 21
1428.300000334843
 31
0.0
  0
LINE
  5
205
330
5D
100
AcDbEntity
  8
0
  6
Continuous
 62
     7
100
AcDbLine
 10
828.0000001392583
 20
1421.300000334843
 30
0.0
 11
827.9831272246536
 21
1427.700000334843
 31
0.0
  0
LINE
  5
206
330
5D
100
AcDbEntity
  8
0
  6
Continuous
 62
     3
100
AcDbLine
 10
828.5000001392583
 20
1467.000000334843
 30
0.0
 11
828.5000001392583
 21
1469.500000334843
 31
0.0
  0
LINE
  5
207
330
5D
100
AcDbEntity
  8
0
  6
Continuous
 62
     7
100
AcDbLine
 10
817.7000001392582
 20
1421.000000334843
 30
0.0
 11
827.7000001392582
 21
1421.000000334843
 31
0.0
  0
LINE
  5
208
330
5D
100
AcDbEntity
  8
0
  6
Continuous
 62
     7
100
AcDbLine
 10
817.3000001392583
 20
1421.000000334843
 30
0.0
 11
817.7000001392582
 21
1421.000000334843
 31
0.0
  0
LINE
  5
209
330
5D
100
AcDbEntity
  8
0
  6
Continuous
 62
     3
100
AcDbLine
 10
830.2900001392583
 20
1469.500000334843
 30
0.0
 11
830.0000001392583
 21
1469.500000334843
 31
0.0
  0
LINE
  5
20A
330
5D
100
AcDbEntity
  8
0
  6
Continuous
 62
     7
100
AcDbLine
 10
828.0000001392583
 20
1467.312540690582
 30
0.0
 11
828.0000001392583
 21
1469.500000334843
 31
0.0
  0
LINE
  5
20B
330
5D
100
AcDbEntity
  8
0
  6
Continuous
 62
     3
100
AcDbLine
 10
828.5000001392583
 20
1443.000000334843
 30
0.0
 11
828.5000001392583
 21
1467.000000334843
 31
0.0
  0
LINE
  5
20C
330
5D
100
AcDbEntity
  8
0
  6
Continuous
 62
     3
100
AcDbLine
 10
828.5000001392583
 20
1469.500000334843
 30
0.0
 11
828.0000001392583
 21
1469.500000334843
 31
0.0
  0
LINE
  5
20D
330
5D
100
AcDbEntity
  8
0
  6
Continuous
 62
     7
100
AcDbLine
 10
827.5000001392583
 20
1457.03650995349
 30
0.0
 11
827.5000001392583
 21
1462.500000334843
 31
0.0
  0
LINE
  5
20E
330
5D
100
AcDbEntity
  8
0
  6
Continuous
 62
     7
100
AcDbLine
 10
828.0000001392583
 20
1457.536814725639
 30
0.0
 11
828.0000001392583
 21
1462.500000334843
 31
0.0
  0
LINE
  5
20F
330
5D
100
AcDbEntity
  8
0
  6
Continuous
 62
     7
100
AcDbLine
 10
828.0000001392583
 20
1456.291348966401
 30
0.0
 11
828.0000001392583
 21
1457.536814725639
 31
0.0
  0
LINE
  5
210
330
5D
100
AcDbEntity
  8
0
  6
Continuous
 62
     7
100
AcDbLine
 10
818.0000001392583
 20
1466.000000334843
 30
0.0
 11
818.0000001392583
 21
1462.500000334843
 31
0.0
  0
LINE
  5
211
330
5D
100
AcDbEntity
  8
0
  6
Continuous
 62
     3
100
AcDbLine
 10
827.5174498876095
 20
1457.037119312129
 30
0.0
 11
827.5174498876095
 21
1455.791653552891
 31
0.0
  0
LINE
  5
212
330
5D
100
AcDbEntity
  8
0
  6
Continuous
 62
     3
100
AcDbLine
 10
828.5000001392583
 20
1469.500000334843
 30
0.0
 11
830.0000001392583
 21
1469.500000334843
 31
0.0
  0
LINE
  5
213
330
5D
100
AcDbEntity
  8
0
  6
Continuous
 62
     7
100
AcDbLine
 10
818.0000001392583
 20
1447.500000334843
 30
0.0
 11
818.0000001392583
 21
1444.000000334843
 31
0.0
  0
LINE
  5
214
330
5D
100
AcDbEntity
  8
0
  6
Continuous
 62
     7
100
AcDbLine
 10
828.0000001392583
 20
1453.708651703285
 30
0.0
 11
828.0000001392583
 21
1454.70728272218
 31
0.0
  0
LINE
  5
215
330
5D
100
AcDbEntity
  8
0
  6
Continuous
 62
     7
100
AcDbLine
 10
828.0000001392583
 20
1455.292717947505
 30
0.0
 11
828.0000001392583
 21
1456.291348966401
 31
0.0
  0
LINE
  5
216
330
5D
100
AcDbEntity
  8
0
  6
Continuous
 62
     7
100
AcDbLine
 10
828.0000001392583
 20
1454.70728272218
 30
0.0
 11
828.0000001392583
 21
1455.292717947505
 31
0.0
  0
LINE
  5
217
330
5D
100
AcDbEntity
  8
0
  6
Continuous
 62
     3
100
AcDbLine
 10
817.0000001392583
 20
1421.300000334843
 30
0.0
 11
827.8146068808313
 21
1421.300000334843
 31
0.0
  0
LINE
  5
218
330
5D
100
AcDbEntity
  8
0
  6
Continuous
 62
     3
100
AcDbLine
 10
827.5435780106321
 20
1455.292717947505
 30
0.0
 11
827.5435780106321
 21
1454.70728272218
 31
0.0
  0
LINE
  5
219
330
5D
100
AcDbEntity
  8
0
  6
Continuous
 62
     7
100
AcDbLine
 10
827.5000001392583
 20
1447.500000334843
 30
0.0
 11
827.5000001392583
 21
1452.963490716196
 31
0.0
  0
LINE
  5
21A
330
5D
100
AcDbEntity
  8
0
  6
Continuous
 62
     7
100
AcDbLine
 10
828.0000001392583
 20
1452.94603033145
 30
0.0
 11
828.0000001392583
 21
1453.708651703285
 31
0.0
  0
LINE
  5
21B
330
5D
100
AcDbEntity
  8
0
  6
Continuous
 62
     7
100
AcDbLine
 10
828.0000001392583
 20
1447.500000334843
 30
0.0
 11
828.0000001392583
 21
1452.94603033145
 31
0.0
  0
LINE
  5
21C
330
5D
100
AcDbEntity
  8
0
  6
Continuous
 62
     3
100
AcDbLine
 10
827.8146068808313
 20
1421.300000334843
 30
0.0
 11
827.8146068808313
 21
1427.700000334843
 31
0.0
  0
LINE
  5
21D
330
5D
100
AcDbEntity
  8
0
  6
Continuous
 62
     7
100
AcDbLine
 10
817.0000001392583
 20
1421.300000334843
 30
0.0
 11
817.0000001392583
 21
1427.700000334843
 31
0.0
  0
LINE
  5
21E
330
5D
100
AcDbEntity
  8
0
  6
Continuous
 62
     7
100
AcDbLine
 10
815.0000001392582
 20
1400.267949527274
 30
0.0
 11
815.0000001392582
 21
1414.732051142412
 31
0.0
  0
LINE
  5
21F
330
5D
100
AcDbEntity
  8
0
  6
Continuous
 62
     7
100
AcDbLine
 10
815.0000001392582
 20
1400.267949527274
 30
0.0
 11
816.0000001392582
 21
1400.000000334843
 31
0.0
  0
LINE
  5
220
330
5D
100
AcDbEntity
  8
0
  6
Continuous
 62
     7
100
AcDbLine
 10
818.0000001392583
 20
1418.500000334843
 30
0.0
 11
818.0000001392583
 21
1415.700000334843
 31
0.0
  0
LINE
  5
221
330
5D
100
AcDbEntity
  8
0
  6
Continuous
 62
     7
100
AcDbLine
 10
818.0000001392583
 20
1420.700000334843
 30
0.0
 11
818.0000001392583
 21
1418.500000334843
 31
0.0
  0
LINE
  5
222
330
5D
100
AcDbEntity
  8
0
  6
Continuous
 62
     7
100
AcDbLine
 10
816.0000001392582
 20
1400.000000334843
 30
0.0
 11
816.0000001392582
 21
1415.000000334843
 31
0.0
  0
LINE
  5
223
330
5D
100
AcDbEntity
  8
0
  6
Continuous
 62
     3
100
AcDbLine
 10
828.5000001392583
 20
1392.500000334843
 30
0.0
 11
828.5000001392583
 21
1395.500000334843
 31
0.0
  0
LINE
  5
224
330
5D
100
AcDbEntity
  8
0
  6
Continuous
 62
     7
100
AcDbLine
 10
828.0000001392583
 20
1393.000000334843
 30
0.0
 11
828.0000001392583
 21
1400.000000334843
 31
0.0
  0
LINE
  5
225
330
5D
100
AcDbEntity
  8
0
  6
Continuous
 62
     7
100
AcDbLine
 10
827.5000001303293
 20
1410.700000334843
 30
0.0
 11
827.5000001392583
 21
1415.000000334843
 31
0.0
  0
LINE
  5
226
330
5D
100
AcDbEntity
  8
0
  6
Continuous
 62
     3
100
AcDbLine
 10
828.5000001392583
 20
1395.500000334843
 30
0.0
 11
828.5000001392583
 21
1406.500000334843
 31
0.0
  0
LINE
  5
227
330
5D
100
AcDbEntity
  8
0
  6
Continuous
 62
     7
100
AcDbLine
 10
827.5000001392583
 20
1400.000000334843
 30
0.0
 11
827.5000001303293
 21
1410.700000334843
 31
0.0
  0
LINE
  5
228
330
5D
100
AcDbEntity
  8
0
  6
Continuous
 62
     7
100
AcDbLine
 10
828.0000001392583
 20
1410.200000367596
 30
0.0
 11
827.998588793392
 21
1410.274338631736
 31
0.0
  0
LINE
  5
229
330
5D
100
AcDbEntity
  8
0
  6
Continuous
 62
     7
100
AcDbLine
 10
828.0000001392583
 20
1406.500000334843
 30
0.0
 11
828.0000001392583
 21
1410.200000367596
 31
0.0
  0
LINE
  5
22A
330
5D
100
AcDbEntity
  8
0
  6
Continuous
 62
     7
100
AcDbLine
 10
827.998588793392
 20
1410.274338631736
 30
0.0
 11
828.0000001392583
 21
1415.000000334843
 31
0.0
  0
LINE
  5
22B
330
5D
100
AcDbEntity
  8
0
  6
Continuous
 62
     3
100
AcDbLine
 10
828.0000001392583
 20
1406.500000334843
 30
0.0
 11
828.5000001392583
 21
1406.500000334843
 31
0.0
  0
LINE
  5
22C
330
5D
100
AcDbEntity
  8
0
  6
Continuous
 62
     7
100
AcDbLine
 10
828.0000001392583
 20
1400.000000334843
 30
0.0
 11
828.0000001392583
 21
1406.500000334843
 31
0.0
  0
LINE
  5
22D
330
5D
100
AcDbEntity
  8
0
  6
Continuous
 62
     7
100
AcDbLine
 10
828.0000001392583
 20
1420.700000334843
 30
0.0
 11
828.0000001392583
 21
1421.300000334843
 31
0.0
  0
LINE
  5
22E
330
5D
100
AcDbEntity
  8
0
  6
Continuous
 62
     3
100
AcDbLine
 10
827.8146068808313
 20
1421.300000334843
 30
0.0
 11
828.0000001392583
 21
1421.300000334843
 31
0.0
  0
LINE
  5
22F
330
5D
100
AcDbEntity
  8
0
  6
Continuous
 62
     7
100
AcDbLine
 10
845.0000001392583
 20
1406.500000334843
 30
0.0
 11
845.0000001392583
 21
1406.404000334843
 31
0.0
  0
LINE
  5
230
330
5D
100
AcDbEntity
  8
0
  6
Continuous
 62
     7
100
AcDbLine
 10
845.0000001392583
 20
1419.061442463235
 30
0.0
 11
845.0000001392583
 21
1412.800000334843
 31
0.0
  0
LINE
  5
231
330
5D
100
AcDbEntity
  8
0
  6
Continuous
 62
     3
100
AcDbLine
 10
844.4500001392582
 20
1406.500000334843
 30
0.0
 11
844.3500001392583
 21
1406.500000334843
 31
0.0
  0
LINE
  5
232
330
5D
100
AcDbEntity
  8
0
  6
Continuous
 62
     3
100
AcDbLine
 10
845.0000001392583
 20
1406.500000334843
 30
0.0
 11
844.4500001392582
 21
1406.500000334843
 31
0.0
  0
LINE
  5
233
330
5D
100
AcDbEntity
  8
0
  6
Continuous
 62
     7
100
AcDbLine
 10
845.0000001392583
 20
1412.800000334843
 30
0.0
 11
845.0000001392583
 21
1412.500000334843
 31
0.0
  0
LINE
  5
234
330
5D
100
AcDbEntity
  8
0
  6
Continuous
 62
     7
100
AcDbLine
 10
845.0000001392583
 20
1412.500000334843
 30
0.0
 11
845.0000001392583
 21
1406.500000334843
 31
0.0
  0
LINE
  5
235
330
5D
100
AcDbEntity
  8
0
  6
Continuous
 62
     3
100
AcDbLine
 10
828.5000001392583
 20
1406.500000334843
 30
0.0
 11
828.5000001392583
 21
1419.500000334843
 31
0.0
  0
LINE
  5
236
330
5D
100
AcDbEntity
  8
0
  6
Continuous
 62
     7
100
AcDbLine
 10
845.0000001392583
 20
1424.150000334843
 30
0.0
 11
845.0000001392583
 21
1423.650000334843
 31
0.0
  0
LINE
  5
237
330
5D
100
AcDbEntity
  8
0
  6
Continuous
 62
     7
100
AcDbLine
 10
845.0000001392583
 20
1423.650000334843
 30
0.0
 11
845.0000001392583
 21
1422.650000334843
 31
0.0
  0
LINE
  5
238
330
5D
100
AcDbEntity
  8
0
  6
Continuous
 62
     7
100
AcDbLine
 10
845.0000001392583
 20
1422.650000334843
 30
0.0
 11
845.0000001392583
 21
1419.061442463235
 31
0.0
  0
LINE
  5
239
330
5D
100
AcDbEntity
  8
1
  6
PHANTOM
 62
     2
100
AcDbLine
 10
812.515617443406
 20
1438.000000334843
 30
0.0
 11
851.929861264672
 21
1438.000000334843
 31
0.0
  0
ARC
  5
23A
330
5D
100
AcDbEntity
  8
0
  6
Continuous
 62
     3
100
AcDbCircle
 10
816.9825504278933
 20
1427.355105443761
 30
0.0
 40
1.500000037559517
100
AcDbArc
 50
179.9999990009865
 51
-93.99999870755123
  0
ARC
  5
23B
330
5D
100
AcDbEntity
  8
0
  6
Continuous
 62
     7
100
AcDbCircle
 10
815.5000001392582
 20
1455.081735859218
 30
0.0
 40
0.5000000000001774
100
AcDbArc
 50
90.99999980554863
 51
180.0
  0
ARC
  5
23C
330
5D
100
AcDbEntity
  8
0
  6
Continuous
 62
     7
100
AcDbCircle
 10
828.5000001392583
 20
1483.000000334843
 30
0.0
 40
0.5
100
AcDbArc
 50
90.0
 51
180.0
  0
ARC
  5
23D
330
5D
100
AcDbEntity
  8
0
  6
Continuous
 62
     7
100
AcDbCircle
 10
815.5000001392582
 20
1454.918264810468
 30
0.0
 40
0.5
100
AcDbArc
 50
180.0
 51
-91.0000000064629
  0
ARC
  5
23E
330
5D
100
AcDbEntity
  8
0
  6
Continuous
 62
     7
100
AcDbCircle
 10
817.3000001392583
 20
1427.700000334843
 30
0.0
 40
0.2999999999999545
100
AcDbArc
 50
90.0
 51
180.0
  0
ARC
  5
23F
330
5D
100
AcDbEntity
  8
0
  6
Continuous
 62
     7
100
AcDbCircle
 10
817.7000001392582
 20
1428.300000334843
 30
0.0
 40
0.2999999999999545
100
AcDbArc
 50
-90.0
 51
0.0
  0
ARC
  5
240
330
5D
100
AcDbEntity
  8
0
  6
Continuous
 62
     7
100
AcDbCircle
 10
827.6942601231756
 20
1428.305740350925
 30
0.0
 40
0.3057938933634976
100
AcDbArc
 50
-88.92444545419913
 51
-1.07555454567028
  0
ARC
  5
241
330
5D
100
AcDbEntity
  8
0
  6
Continuous
 62
     7
100
AcDbCircle
 10
817.0000001392582
 20
1427.355105411229
 30
0.0
 40
2.0
100
AcDbArc
 50
180.0
 51
-94.00000000005636
  0
ARC
  5
242
330
5D
100
AcDbEntity
  8
0
  6
Continuous
 62
     7
100
AcDbCircle
 10
817.7000001392582
 20
1420.700000334843
 30
0.0
 40
0.3000000000000682
100
AcDbArc
 50
0.0
 51
90.0
  0
ARC
  5
243
330
5D
100
AcDbEntity
  8
0
  6
Continuous
 62
     7
100
AcDbCircle
 10
827.5000001392633
 20
1480.500000404933
 30
0.0
 40
0.4999999999949978
100
AcDbArc
 50
-90.00000000057321
 51
-1.08920308813284
  0
ARC
  5
244
330
5D
100
AcDbEntity
  8
0
  6
Continuous
 62
     7
100
AcDbCircle
 10
817.3000001392583
 20
1421.300000334843
 30
0.0
 40
0.2999999999999545
100
AcDbArc
 50
180.0
 51
-90.0
  0
ARC
  5
245
330
5D
100
AcDbEntity
  8
0
  6
Continuous
 62
     7
100
AcDbCircle
 10
827.5000001392583
 20
1457.536814725639
 30
0.0
 40
0.5000000000003749
100
AcDbArc
 50
-88.00000000001089
 51
0.0
  0
ARC
  5
246
330
5D
100
AcDbEntity
  8
0
  6
Continuous
 62
     7
100
AcDbCircle
 10
827.5000001392583
 20
1456.291348966401
 30
0.0
 40
0.5000000000006021
100
AcDbArc
 50
-88.00000000001181
 51
0.0
  0
ARC
  5
247
330
5D
100
AcDbEntity
  8
0
  6
Continuous
 62
     7
100
AcDbCircle
 10
827.5000001392583
 20
1453.708651703285
 30
0.0
 40
0.5
100
AcDbArc
 50
0.0
 51
88.99999999999778
  0
ARC
  5
248
330
5D
100
AcDbEntity
  8
0
  6
Continuous
 62
     7
100
AcDbCircle
 10
825.9999997961332
 20
1472.000000748063
 30
0.0
 40
7.999999656874942
100
AcDbArc
 50
89.99999754254763
 51
-179.9999975425476
  0
ARC
  5
249
330
5D
100
AcDbEntity
  8
0
  6
Continuous
 62
     7
100
AcDbCircle
 10
828.5000001392583
 20
1393.000000334843
 30
0.0
 40
0.5
100
AcDbArc
 50
180.0
 51
-90.0
  0
ARC
  5
24A
330
5D
100
AcDbEntity
  8
0
  6
Continuous
 62
     7
100
AcDbCircle
 10
827.6942601231756
 20
1420.69426031876
 30
0.0
 40
0.3057938933643017
100
AcDbArc
 50
1.07555454588326
 51
88.92444545420314
  0
SPLINE
  5
24B
330
5D
100
AcDbEntity
  8
0
  6
Continuous
 62
     3
100
AcDbSpline
210
0.0
220
0.0
230
1.0
 70
     8
 71
     3
 72
    11
 73
     7
 74
     5
 42
0.0000000001
 43
0.0000000001
 44
0.00000001
 40
0.0
 40
0.0
 40
0.0
 40
0.0
 40
0.1846702588120487
 40
0.3422201514667917
 40
0.4123852012712652
 40
0.4825502510756269
 40
0.4825502510756269
 40
0.4825502510756269
 40
0.4825502510756269
 10
815.4825503903338
 20
1427.355105469915
 30
0.0
 10
815.4209936373966
 20
1427.355105463481
 30
0.0
 10
815.3069202535745
 20
1427.355105451557
 30
0.0
 10
815.1694585198168
 20
1427.355105444647
 30
0.0
 10
815.0701651890627
 20
1427.355105432522
 30
0.0
 10
815.0233884891929
 20
1427.355105418327
 30
0.0
 10
815.0000001392582
 20
1427.355105411229
 30
0.0
 11
815.4825503903338
 21
1427.355105469915
 31
0.0
 11
815.2978801315218
 21
1427.355105452414
 31
0.0
 11
815.140330238867
 21
1427.355105440572
 31
0.0
 11
815.0701651890625
 21
1427.355105430401
 31
0.0
 11
815.0000001392582
 21
1427.355105411229
 31
0.0
  0
SPLINE
  5
24C
330
5D
100
AcDbEntity
  8
0
  6
Continuous
 62
     3
100
AcDbSpline
210
0.0
220
0.0
230
1.0
 70
     8
 71
     3
 72
    15
 73
    11
 74
     9
 42
0.0000000001
 43
0.0000000001
 44
0.00000001
 40
0.0
 40
0.0
 40
0.0
 40
0.0
 40
0.0909051925208381
 40
0.1838712101381866
 40
0.2733745552184299
 40
0.3533857121199994
 40
0.4185667750121948
 40
0.4655428786557229
 40
0.4762197039640583
 40
0.4868965292723938
 40
0.4868965292723938
 40
0.4868965292723938
 40
0.4868965292723938
 10
816.8256886537629
 20
1455.105636492896
 30
0.0
 10
816.8253053810497
 20
1455.135936191652
 30
0.0
 10
816.824530146813
 20
1455.197222484796
 30
0.0
 10
816.8252424615018
 20
1455.288354518336
 30
0.0
 10
816.8276250239776
 20
1455.375811849144
 30
0.0
 10
816.8314635807254
 20
1455.453986331768
 30
0.0
 10
816.8372387833288
 20
1455.517740207197
 30
0.0
 10
816.8421303917573
 20
1455.558511109561
 30
0.0
 10
816.8476249371615
 20
1455.580623311429
 30
0.0
 10
816.8492617756617
 20
1455.58754999765
 30
0.0
 10
816.8500801949115
 20
1455.59101334076
 30
0.0
 11
816.8256886537629
 21
1455.105636492896
 31
0.0
 11
816.8248454296681
 21
1455.196537774517
 31
0.0
 11
816.825558005617
 21
1455.28950106118
 31
0.0
 11
816.8280551438445
 21
1455.378969564472
 31
0.0
 11
816.8323100751272
 21
1455.458867504298
 31
0.0
 11
816.8381559898864
 21
1455.523785885673
 31
0.0
 11
816.8451295517218
 21
1455.570241496194
 31
0.0
 11
816.8476048733166
 21
1455.580627418477
 31
0.0
 11
816.8500801949115
 21
1455.59101334076
 31
0.0
  0
SPLINE
  5
24D
330
5D
100
AcDbEntity
  8
0
  6
Continuous
 62
     3
100
AcDbSpline
210
0.0
220
0.0
230
1.0
 70
     8
 71
     3
 72
    16
 73
    12
 74
    10
 42
0.0000000001
 43
0.0000000001
 44
0.00000001
 40
0.0
 40
0.0
 40
0.0
 40
0.0
 40
0.2497808049278551
 40
0.4927968192989376
 40
0.9292641916042728
 40
1.300140867728676
 40
1.499626727153844
 40
1.654453691834423
 40
1.761540233139645
 40
1.793692593051665
 40
1.825844952963694
 40
1.825844952963694
 40
1.825844952963694
 40
1.825844952963694
 10
816.8256886537629
 20
1454.894364177241
 30
0.0
 10
816.7424355191956
 20
1454.895454068825
 30
0.0
 10
816.5781839870443
 20
1454.89760433456
 30
0.0
 10
816.2684557963016
 20
1454.901659078455
 30
0.0
 10
815.9183657736669
 20
1454.90624221167
 30
0.0
 10
815.5827845594569
 20
1454.910635405544
 30
0.0
 10
815.3410754374675
 20
1454.913799691861
 30
0.0
 10
815.1872888265691
 20
1454.915812958319
 30
0.0
 10
815.0892752697946
 20
1454.917096083068
 30
0.0
 10
815.0321497443547
 20
1454.917843930384
 30
0.0
 10
815.0107166742904
 20
1454.918124517107
 30
0.0
 10
815.0000001392582
 20
1454.918264810468
 30
0.0
 11
816.8256886537629
 21
1454.894364177241
 31
0.0
 11
816.575929250061
 21
1454.897633851978
 31
0.0
 11
816.3329340573083
 21
1454.900814974404
 31
0.0
 11
815.896504081544
 21
1454.906528409577
 31
0.0
 11
815.5256591821473
 21
1454.911383250925
 31
0.0
 11
815.3261904146781
 21
1454.91399455614
 31
0.0
 11
815.1713767155777
 21
1454.916021268518
 31
0.0
 11
815.0642993494514
 21
1454.917423050301
 31
0.0
 11
815.0321497443548
 21
1454.917843930384
 31
0.0
 11
815.0000001392582
 21
1454.918264810468
 31
0.0
  0
SPLINE
  5
24E
330
5D
100
AcDbEntity
  8
0
  6
Continuous
 62
     3
100
AcDbSpline
210
0.0
220
0.0
230
1.0
 70
    24
 71
     3
 72
    16
 73
    12
 74
    10
 42
0.0000000001
 43
0.0000000001
 44
0.00000001
 40
0.0
 40
0.0
 40
0.0
 40
0.0
 40
0.2500165824751655
 40
0.4932516706477571
 40
0.9285791343918377
 40
1.29870405190468
 40
1.49896305207859
 40
1.654329105878549
 40
1.761692628118536
 40
1.793768790543355
 40
1.825844952969599
 40
1.825844952969599
 40
1.825844952969599
 40
1.825844952969599
 10
816.8256886537629
 20
1455.105636492896
 30
0.0
 10
816.7423569334148
 20
1455.104545572442
 30
0.0
 10
816.5779537971396
 20
1455.102393321855
 30
0.0
 10
816.2684539392408
 20
1455.09834156681
 30
0.0
 10
815.9189213999582
 20
1455.093765731915
 30
0.0
 10
815.5837129959441
 20
1455.089377418582
 30
0.0
 10
815.3418170662105
 20
1455.086210686701
 30
0.0
 10
815.1875007637652
 20
1455.084190485916
 30
0.0
 10
815.0892406039327
 20
1455.082904132765
 30
0.0
 10
815.032073553397
 20
1455.082155741893
 30
0.0
 10
815.0106912773045
 20
1455.08187582011
 30
0.0
 10
815.0000001392582
 20
1455.081735859218
 30
0.0
 11
816.8256886537629
 21
1455.105636492896
 31
0.0
 11
816.5756934927183
 21
1455.102363731546
 31
0.0
 11
816.3324792449371
 21
1455.099179741197
 31
0.0
 11
815.8971890800666
 21
1455.093481227629
 31
0.0
 11
815.5270958748707
 21
1455.088636226934
 31
0.0
 11
815.3268540328955
 21
1455.08601480117
 31
0.0
 11
815.171501290865
 21
1455.08398103202
 31
0.0
 11
815.0641469675356
 21
1455.082575624507
 31
0.0
 11
815.0320735533974
 21
1455.082155741882
 31
0.0
 11
815.0000001392582
 21
1455.081735859218
 31
0.0
  0
SPLINE
  5
24F
330
5D
100
AcDbEntity
  8
0
  6
Continuous
 62
     3
100
AcDbSpline
210
0.0
220
0.0
230
1.0
 70
     8
 71
     3
 72
    15
 73
    11
 74
     9
 42
0.0000000001
 43
0.0000000001
 44
0.00000001
 40
0.0
 40
0.0
 40
0.0
 40
0.0
 40
0.0909051733389527
 40
0.1838711811081611
 40
0.2733745250513359
 40
0.3533856877843302
 40
0.4185667611338621
 40
0.4655428777025352
 40
0.4848101885541259
 40
0.5040774994055537
 40
0.5040774994055537
 40
0.5040774994055537
 40
0.5040774994055537
 10
816.8256886537629
 20
1454.894364177241
 30
0.0
 10
816.8253087776229
 20
1454.864065645641
 30
0.0
 10
816.8245404134917
 20
1454.802781710014
 30
0.0
 10
816.8252011876089
 20
1454.71163199352
 30
0.0
 10
816.8277669736724
 20
1454.624237522683
 30
0.0
 10
816.8310319279701
 20
1454.545866223593
 30
0.0
 10
816.8383772068769
 20
1454.4826510362
 30
0.0
 10
816.8402193814036
 20
1454.43786512515
 30
0.0
 10
816.8530253163087
 20
1454.412155959265
 30
0.0
 10
816.8580354960927
 20
1454.400345536162
 30
0.0
 10
816.8605405859847
 20
1454.39444032461
 30
0.0
 11
816.8256886537629
 21
1454.894364177241
 31
0.0
 11
816.8248454667657
 21
1454.803462914458
 31
0.0
 11
816.8255580718183
 21
1454.710499637867
 31
0.0
 11
816.8280552325149
 21
1454.62103113634
 31
0.0
 11
816.8323101824778
 21
1454.541133191669
 31
0.0
 11
816.8381561155076
 21
1454.476214801439
 31
0.0
 11
816.8451296985838
 21
1454.429759181037
 31
0.0
 11
816.8528351422842
 21
1454.412099752823
 31
0.0
 11
816.8605405859847
 21
1454.39444032461
 31
0.0
  0
SPLINE
  5
250
330
5D
100
AcDbEntity
  8
0
  6
Continuous
 62
     3
100
AcDbSpline
210
0.0
220
0.0
230
1.0
 70
     8
 71
     3
 72
    11
 73
     7
 74
     5
 42
0.0000000001
 43
0.0000000001
 44
0.00000001
 40
0.0
 40
0.0
 40
0.0
 40
0.0
 40
0.1187994406086398
 40
0.2168133228684849
 40
0.2793419399841992
 40
0.3006412548608682
 40
0.3006412548608682
 40
0.3006412548608682
 40
0.3006412548608682
 10
827.6886278243919
 20
1428.300000334843
 30
0.0
 10
827.6885845252027
 20
1428.26037226397
 30
0.0
 10
827.6885055025996
 20
1428.188049585674
 30
0.0
 10
827.6922278365831
 20
1428.095243414139
 30
0.0
 10
827.6916993761138
 20
1428.034110560727
 30
0.0
 10
827.6983183624287
 20
1428.006911240086
 30
0.0
 10
827.7000001392582
 20
1428.000000334843
 30
0.0
 11
827.6886278243919
 21
1428.300000334843
 31
0.0
 11
827.6893890571263
 21
1428.18120333314
 31
0.0
 11
827.6917294108487
 21
1428.083217396087
 31
0.0
 11
827.6953978484814
 21
1428.020796481934
 31
0.0
 11
827.7000001392582
 21
1428.000000334843
 31
0.0
  0
SPLINE
  5
251
330
5D
100
AcDbEntity
  8
0
  6
Continuous
 62
     3
100
AcDbSpline
210
0.0
220
0.0
230
1.0
 70
     8
 71
     3
 72
    11
 73
     7
 74
     5
 42
0.0000000001
 43
0.0000000001
 44
0.00000001
 40
0.0
 40
0.0
 40
0.0
 40
0.0
 40
0.0250020528667413
 40
0.0935388163336602
 40
0.1931686676536006
 40
0.3213797323272343
 40
0.3213797323272343
 40
0.3213797323272343
 40
0.3213797323272343
 10
827.7000001392582
 20
1428.000000334843
 30
0.0
 10
827.7032543519948
 20
1427.992325522899
 30
0.0
 10
827.7154291605631
 20
1427.963612167691
 30
0.0
 10
827.735203563112
 20
1427.902272229718
 30
0.0
 10
827.7650829657932
 20
1427.808016988156
 30
0.0
 10
827.7967737715703
 20
1427.738896144656
 30
0.0
 10
827.8146068808313
 20
1427.700000334843
 30
0.0
 11
827.7000001392582
 21
1428.000000334843
 31
0.0
 11
827.7095770671062
 21
1427.97690520331
 31
0.0
 11
827.7319772208159
 21
1427.912132361313
 31
0.0
 11
827.7638690954934
 21
1427.817744779484
 31
0.0
 11
827.8146068808313
 21
1427.700000334843
 31
0.0
  0
SPLINE
  5
252
330
5D
100
AcDbEntity
  8
0
  6
Continuous
 62
     3
100
AcDbSpline
210
0.0
220
0.0
230
1.0
 70
    24
 71
     3
 72
    11
 73
     7
 74
     5
 42
0.0000000001
 43
0.0000000001
 44
0.00000001
 40
0.0
 40
0.0
 40
0.0
 40
0.0
 40
0.075586700371332
 40
0.1347745146127863
 40
0.1516474292175189
 40
0.1685203438222516
 40
0.1685203438222516
 40
0.1685203438222516
 40
0.1685203438222516
 10
827.8146068808313
 20
1427.700000334843
 30
0.0
 10
827.8398024476218
 20
1427.700000334843
 30
0.0
 10
827.8847272858262
 20
1427.700000334843
 30
0.0
 10
827.9352764288986
 20
1427.700000334843
 30
0.0
 10
827.9662543100487
 20
1427.700000334843
 30
0.0
 10
827.9775029197854
 20
1427.700000334843
 30
0.0
 10
827.9831272246536
 20
1427.700000334843
 30
0.0
 11
827.8146068808313
 21
1427.700000334843
 31
0.0
 11
827.8901935812027
 21
1427.700000334843
 31
0.0
 11
827.9493813954441
 21
1427.700000334843
 31
0.0
 11
827.9662543100488
 21
1427.700000334843
 31
0.0
 11
827.9831272246536
 21
1427.700000334843
 31
0.0
  0
SPLINE
  5
253
330
5D
100
AcDbEntity
  8
0
  6
Continuous
 62
     3
100
AcDbSpline
210
0.0
220
0.0
230
1.0
 70
     8
 71
     3
 72
    15
 73
    11
 74
     9
 42
0.0000000001
 43
0.0000000001
 44
0.00000001
 40
0.0
 40
0.0
 40
0.0
 40
0.0
 40
0.090850285092191
 40
0.1837186680459125
 40
0.273060190059054
 40
0.3528181132121115
 40
0.4176142749680833
 40
0.4639911343314604
 40
0.4817849858633402
 40
0.4995788373951821
 40
0.4995788373951821
 40
0.4995788373951821
 40
0.4995788373951821
 10
816.8779157484109
 20
1425.858759328543
 30
0.0
 10
816.8758638619566
 20
1425.828545667759
 30
0.0
 10
816.8717145095802
 20
1425.767447196683
 30
0.0
 10
816.8662593170043
 20
1425.676585770297
 30
0.0
 10
816.8618172444028
 20
1425.589388090644
 30
0.0
 10
816.85817046946
 20
1425.511468918413
 30
0.0
 10
816.8572403691694
 20
1425.447910992941
 30
0.0
 10
816.8549840469235
 20
1425.404786256555
 30
0.0
 10
816.8585924396457
 20
1425.377666031384
 30
0.0
 10
816.8598556077272
 20
1425.365873550935
 30
0.0
 10
816.860487191768
 20
1425.35997731071
 30
0.0
 11
816.8779157484109
 21
1425.858759328543
 31
0.0
 11
816.8718772283923
 21
1425.768109945879
 31
0.0
 11
816.8663318705964
 21
1425.675407272998
 31
0.0
 11
816.8617191753181
 21
1425.58618490698
 31
0.0
 11
816.8584089468739
 21
1425.506495706373
 31
0.0
 11
816.8566738867368
 21
1425.441722778814
 31
0.0
 11
816.8565459183384
 21
1425.395346096003
 31
0.0
 11
816.8585165550534
 21
1425.377661703357
 31
0.0
 11
816.860487191768
 21
1425.35997731071
 31
0.0
  0
SPLINE
  5
254
330
5D
100
AcDbEntity
  8
0
  6
Continuous
 62
     3
100
AcDbSpline
210
0.0
220
0.0
230
1.0
 70
     8
 71
     3
 72
    11
 73
     7
 74
     5
 42
0.0000000001
 43
0.0000000001
 44
0.00000001
 40
0.0
 40
0.0
 40
0.0
 40
0.0
 40
0.3971354222878745
 40
0.7942708445750668
 40
1.769619604765233
 40
3.100087179069133
 40
3.100087179069133
 40
3.100087179069133
 40
3.100087179069133
 10
827.5000001392583
 20
1480.000000404938
 30
0.0
 10
827.5000002623456
 20
1479.867621930844
 30
0.0
 10
827.5000005085195
 20
1479.602864982654
 30
0.0
 10
827.4999977661652
 20
1479.012991781035
 30
0.0
 10
827.5000283200038
 20
1478.112007862451
 30
0.0
 10
827.5000371991637
 20
1477.34340241767
 30
0.0
 10
827.5000423224834
 20
1476.899913226264
 30
0.0
 11
827.5000001392583
 21
1480.000000404938
 31
0.0
 11
827.5000001392583
 21
1479.60286498265
 31
0.0
 11
827.5000001392583
 21
1479.205729560363
 31
0.0
 11
827.5000212308709
 21
1478.230380800401
 31
0.0
 11
827.5000423224834
 21
1476.899913226264
 31
0.0
  0
SPLINE
  5
255
330
5D
100
AcDbEntity
  8
0
  6
Continuous
 62
     3
100
AcDbSpline
210
0.0
220
0.0
230
1.0
 70
    24
 71
     3
 72
    11
 73
     7
 74
     5
 42
0.0000000001
 43
0.0000000001
 44
0.00000001
 40
0.0
 40
0.0
 40
0.0
 40
0.0
 40
0.4512087577400097
 40
0.9024175154802736
 40
1.989704704918879
 40
3.44393191959903
 40
3.44393191959903
 40
3.44393191959903
 40
3.44393191959903
 10
826.0000001392583
 20
1480.000000404938
 30
0.0
 10
826.065509774355
 20
1479.864613825738
 30
0.0
 10
826.196529044548
 20
1479.593840667338
 30
0.0
 10
826.4854082538589
 20
1478.996823634766
 30
0.0
 10
826.9199126798198
 20
1478.098847821067
 30
0.0
 10
827.2889074707116
 20
1477.33625858658
 30
0.0
 10
827.5000423224834
 20
1476.899913226264
 30
0.0
 11
826.0000001392583
 21
1480.000000404938
 31
0.0
 11
826.1965290445482
 21
1479.593840667339
 31
0.0
 11
826.3930579498383
 21
1479.187680929739
 31
0.0
 11
826.8666377671756
 21
1478.208949307215
 31
0.0
 11
827.5000423224834
 21
1476.899913226264
 31
0.0
  0
SPLINE
  5
256
330
5D
100
AcDbEntity
  8
0
  6
Continuous
 62
     3
100
AcDbSpline
210
0.0
220
0.0
230
1.0
 70
     8
 71
     3
 72
    19
 73
    15
 74
    13
 42
0.0000000001
 43
0.0000000001
 44
0.00000001
 40
0.0
 40
0.0
 40
0.0
 40
0.0
 40
0.1308457624056416
 40
0.4429236827993307
 40
0.9717016346961362
 40
1.752648101912901
 40
2.821232970820089
 40
4.212927247366238
 40
5.094005677193112
 40
5.868792843269711
 40
6.46652784661992
 40
6.816449674769506
 40
8.191190602404141
 40
9.589292019423981
 40
9.589292019423981
 40
9.589292019423981
 40
9.589292019423981
 10
827.5000423224834
 20
1476.899913226264
 30
0.0
 10
827.5009585973377
 20
1476.856307566817
 30
0.0
 10
827.5040602631876
 20
1476.708698818026
 30
0.0
 10
827.5123180980744
 20
1476.384902721902
 30
0.0
 10
827.5247157058986
 20
1475.844444066339
 30
0.0
 10
827.5423129081064
 20
1475.051869478795
 30
0.0
 10
827.5647807956603
 20
1473.971694240748
 30
0.0
 10
827.5867106539772
 20
1472.858124112909
 30
0.0
 10
827.6059933610495
 20
1471.842453827916
 30
0.0
 10
827.6198544447503
 20
1471.091381428625
 30
0.0
 10
827.6305423276792
 20
1470.517333117108
 30
0.0
 10
827.6437533626674
 20
1469.743311790867
 30
0.0
 10
827.6740770953529
 20
1468.702784960925
 30
0.0
 10
827.6829964928162
 20
1467.778526195111
 30
0.0
 10
827.6874937633718
 20
1467.312503490044
 30
0.0
 11
827.5000423224834
 21
1476.899913226264
 31
0.0
 11
827.5028489579792
 21
1476.769097568422
 31
0.0
 11
827.5103775978957
 21
1476.45711047257
 31
0.0
 11
827.5227356761261
 21
1475.928476950823
 31
0.0
 11
827.5400306265631
 21
1475.147722015297
 31
0.0
 11
827.5623698830993
 21
1474.079370678107
 31
0.0
 11
827.5898608796276
 21
1472.68794795137
 31
0.0
 11
827.6065830900384
 21
1471.807028223367
 31
0.0
 11
827.6209672343128
 21
1471.032374591664
 31
0.0
 11
827.6318852801376
 21
1470.434739309485
 31
0.0
 11
827.6382091952001
 21
1470.084874630053
 31
0.0
 11
827.6694241813625
 21
1468.710488133192
 31
0.0
 11
827.6874937633718
 21
1467.312503490044
 31
0.0
  0
SPLINE
  5
257
330
5D
100
AcDbEntity
  8
0
  6
Continuous
 62
     3
100
AcDbSpline
210
0.0
220
0.0
230
1.0
 70
     8
 71
     3
 72
    15
 73
    11
 74
     9
 42
0.0000000001
 43
0.0000000001
 44
0.00000001
 40
0.0
 40
0.0
 40
0.0
 40
0.0
 40
0.0732626824782178
 40
0.1523625359003179
 40
0.2377170904761848
 40
0.3288498186339074
 40
0.4241854719224582
 40
0.5211189844269889
 40
0.616598097051668
 40
0.7078257196402822
 40
0.7078257196402822
 40
0.7078257196402822
 40
0.7078257196402822
 10
828.0000001392583
 20
1477.299899000979
 30
0.0
 10
827.9983410006255
 20
1477.275430786783
 30
0.0
 10
827.9948905322433
 20
1477.224544864541
 30
0.0
 10
827.96659665001
 20
1477.149349180426
 30
0.0
 10
827.9197687979603
 20
1477.077513337111
 30
0.0
 10
827.8544190086843
 20
1477.013703624609
 30
0.0
 10
827.774455465457
 20
1476.962302024659
 30
0.0
 10
827.6853468502718
 20
1476.925737471798
 30
0.0
 10
827.592761453705
 20
1476.903884550272
 30
0.0
 10
827.5304759326953
 20
1476.901216751495
 30
0.0
 10
827.5000423224834
 20
1476.899913226264
 30
0.0
 11
828.0000001392583
 21
1477.299899000979
 31
0.0
 11
827.9916275620385
 21
1477.227116306644
 31
0.0
 11
827.9648988196464
 21
1477.15266927083
 31
0.0
 11
827.918466391438
 21
1477.081049234545
 31
0.0
 11
827.8535702460084
 21
1477.017067483632
 31
0.0
 11
827.7736054139007
 21
1476.965158790584
 31
0.0
 11
827.6840788541678
 21
1476.927995624023
 31
0.0
 11
827.5910229955977
 21
1476.906621150149
 31
0.0
 11
827.5000423224834
 21
1476.899913226264
 31
0.0
  0
SPLINE
  5
258
330
5D
100
AcDbEntity
  8
0
  6
Continuous
 62
     3
100
AcDbSpline
210
0.0
220
0.0
230
1.0
 70
     8
 71
     3
 72
     9
 73
     5
 74
     3
 42
0.0000000001
 43
0.0000000001
 44
0.00000001
 40
0.0
 40
0.0
 40
0.0
 40
0.0
 40
0.1562515776004147
 40
0.3125031552010569
 40
0.3125031552010569
 40
0.3125031552010569
 40
0.3125031552010569
 10
827.6874937633718
 20
1467.312503490044
 30
0.0
 10
827.6874937635773
 20
1467.260419630844
 30
0.0
 10
827.6874937639888
 20
1467.156251912443
 30
0.0
 10
827.6874937668154
 20
1467.052084194043
 30
0.0
 10
827.6874937682287
 20
1467.000000334843
 30
0.0
 11
827.6874937633718
 21
1467.312503490044
 31
0.0
 11
827.6874937645925
 21
1467.156251912444
 31
0.0
 11
827.6874937682287
 21
1467.000000334843
 31
0.0
  0
SPLINE
  5
259
330
5D
100
AcDbEntity
  8
0
  6
Continuous
 62
     3
100
AcDbSpline
210
0.0
220
0.0
230
1.0
 70
     8
 71
     3
 72
    15
 73
    11
 74
     9
 42
0.0000000001
 43
0.0000000001
 44
0.00000001
 40
0.0
 40
0.0
 40
0.0
 40
0.0
 40
0.0026085870536264
 40
0.0208686964288972
 40
0.0424543840957952
 40
0.0854239104373147
 40
0.1327026429911687
 40
0.1878180148395081
 40
0.2485512813864683
 40
0.3125063799553675
 40
0.3125063799553675
 40
0.3125063799553675
 40
0.3125063799553675
 10
828.0000001392583
 20
1467.312540690582
 30
0.0
 10
827.9991306103516
 20
1467.312540252502
 30
0.0
 10
827.9921743790982
 20
1467.312536747859
 30
0.0
 10
827.9780229201999
 20
1467.312527686006
 30
0.0
 10
827.9504178116165
 20
1467.312526458149
 30
0.0
 10
827.9131398303862
 20
1467.312519497095
 30
0.0
 10
827.8646852867472
 20
1467.312516018995
 30
0.0
 10
827.8103094966702
 20
1467.312511580072
 30
0.0
 10
827.7503749177959
 20
1467.312507585043
 30
0.0
 10
827.7088121295149
 20
1467.312504878357
 30
0.0
 10
827.6874937633718
 20
1467.312503490044
 30
0.0
 11
828.0000001392583
 21
1467.312540690582
 31
0.0
 11
827.9973915525433
 21
1467.312539361501
 31
0.0
 11
827.9791314455381
 21
1467.312530057933
 31
0.0
 11
827.9575457581756
 21
1467.312526432944
 31
0.0
 11
827.9145762322369
 21
1467.312520549257
 31
0.0
 11
827.8672974998891
 21
1467.3125161348
 31
0.0
 11
827.8121821282062
 21
1467.312511863854
 31
0.0
 11
827.751448861804
 21
1467.312507671751
 31
0.0
 11
827.6874937633718
 21
1467.312503490044
 31
0.0
  0
SPLINE
  5
25A
330
5D
100
AcDbEntity
  8
0
  6
Continuous
 62
     3
100
AcDbSpline
210
0.0
220
0.0
230
1.0
 70
    24
 71
     3
 72
    11
 73
     7
 74
     5
 42
0.0000000001
 43
0.0000000001
 44
0.00000001
 40
0.0
 40
0.0
 40
0.0
 40
0.0
 40
0.0656806701425694
 40
0.1313613402850251
 40
0.2788561364737916
 40
0.4564221286261727
 40
0.4564221286261727
 40
0.4564221286261727
 40
0.4564221286261727
 10
828.0000001392583
 20
1454.70728272218
 30
0.0
 10
827.9781065825441
 20
1454.70728272218
 30
0.0
 10
827.934319469116
 20
1454.707282722181
 30
0.0
 10
827.8413674236241
 20
1454.707282722179
 30
0.0
 10
827.7111202707968
 20
1454.70728272218
 30
0.0
 10
827.6027666746829
 20
1454.70728272218
 30
0.0
 10
827.5435780106321
 20
1454.70728272218
 30
0.0
 11
828.0000001392583
 21
1454.70728272218
 31
0.0
 11
827.9343194691157
 21
1454.707282722181
 31
0.0
 11
827.8686387989733
 21
1454.70728272218
 31
0.0
 11
827.7211440027845
 21
1454.70728272218
 31
0.0
 11
827.5435780106321
 21
1454.70728272218
 31
0.0
  0
SPLINE
  5
25B
330
5D
100
AcDbEntity
  8
0
  6
Continuous
 62
     3
100
AcDbSpline
210
0.0
220
0.0
230
1.0
 70
    24
 71
     3
 72
    11
 73
     7
 74
     5
 42
0.0000000001
 43
0.0000000001
 44
0.00000001
 40
0.0
 40
0.0
 40
0.0
 40
0.0
 40
0.1775659921523811
 40
0.3250607883410339
 40
0.3907414584834896
 40
0.4564221286261727
 40
0.4564221286261727
 40
0.4564221286261727
 40
0.4564221286261727
 10
827.5435780106321
 20
1455.292717947505
 30
0.0
 10
827.6027666746829
 20
1455.292717947505
 30
0.0
 10
827.7111202707965
 20
1455.292717947505
 30
0.0
 10
827.8413674236242
 20
1455.292717947506
 30
0.0
 10
827.934319469116
 20
1455.292717947504
 30
0.0
 10
827.9781065825441
 20
1455.292717947505
 30
0.0
 10
828.0000001392583
 20
1455.292717947505
 30
0.0
 11
827.5435780106321
 21
1455.292717947505
 31
0.0
 11
827.7211440027845
 21
1455.292717947505
 31
0.0
 11
827.8686387989732
 21
1455.292717947505
 31
0.0
 11
827.9343194691156
 21
1455.292717947504
 31
0.0
 11
828.0000001392583
 21
1455.292717947505
 31
0.0
  0
SPLINE
  5
25C
330
5D
100
AcDbEntity
  8
0
  6
Continuous
 62
     3
100
AcDbSpline
210
0.0
220
0.0
230
1.0
 70
     8
 71
     3
 72
    11
 73
     7
 74
     5
 42
0.0000000001
 43
0.0000000001
 44
0.00000001
 40
0.0
 40
0.0
 40
0.0
 40
0.0
 40
0.0630749333842157
 40
0.1464520543614147
 40
0.3706114849928195
 40
0.5002481092288097
 40
0.5002481092288097
 40
0.5002481092288097
 40
0.5002481092288097
 10
827.5174498876095
 20
1455.791653552891
 30
0.0
 10
827.5157860724329
 20
1455.770677358409
 30
0.0
 10
827.5119229030624
 20
1455.721973275664
 30
0.0
 10
827.5171839784001
 20
1455.59836354083
 30
0.0
 10
827.5265279933241
 20
1455.452981483038
 30
0.0
 10
827.539005902079
 20
1455.335693990774
 30
0.0
 10
827.5435780106321
 20
1455.292717947505
 30
0.0
 11
827.5174498876095
 21
1455.791653552891
 31
0.0
 11
827.5135606575711
 21
1455.728698639571
 31
0.0
 11
827.5153477374358
 21
1455.645340672657
 31
0.0
 11
827.5305217077365
 21
1455.421695415685
 31
0.0
 11
827.5435780106321
 21
1455.292717947505
 31
0.0
  0
SPLINE
  5
25D
330
5D
100
AcDbEntity
  8
0
  6
Continuous
 62
     3
100
AcDbSpline
210
0.0
220
0.0
230
1.0
 70
     8
 71
     3
 72
     9
 73
     5
 74
     3
 42
0.0000000001
 43
0.0000000001
 44
0.00000001
 40
0.0
 40
0.0
 40
0.0
 40
0.0
 40
7.350000020213911
 40
14.70000003299426
 40
14.70000003299426
 40
14.70000003299426
 40
14.70000003299426
 10
827.687671789361
 20
1443.000000334843
 30
0.0
 10
827.6878903036172
 20
1440.550000337453
 30
0.0
 10
827.6883273321293
 20
1435.65000034515
 30
0.0
 10
827.6885276603043
 20
1430.750000337452
 30
0.0
 10
827.6886278243919
 20
1428.300000334843
 30
0.0
 11
827.687671789361
 21
1443.000000334843
 31
0.0
 11
827.6882681570453
 21
1435.650000338823
 31
0.0
 11
827.6886278243919
 21
1428.300000334843
 31
0.0
  0
SPLINE
  5
25E
330
5D
100
AcDbEntity
  8
0
  6
Continuous
 62
     3
100
AcDbSpline
210
0.0
220
0.0
230
1.0
 70
     8
 71
     3
 72
    11
 73
     7
 74
     5
 42
0.0000000001
 43
0.0000000001
 44
0.00000001
 40
0.0
 40
0.0
 40
0.0
 40
0.0
 40
0.1717527273549413
 40
0.3537975705388426
 40
0.4371928807482206
 40
0.5000325145595681
 40
0.5000325145595681
 40
0.5000325145595681
 40
0.5000325145595681
 10
827.5435780106321
 20
1454.70728272218
 30
0.0
 10
827.5376426816856
 20
1454.650333959513
 30
0.0
 10
827.5254163549548
 20
1454.533023834736
 30
0.0
 10
827.5168113911346
 20
1454.387507839526
 30
0.0
 10
827.5116069245047
 20
1454.278208027408
 30
0.0
 10
827.5095921326733
 20
1454.229504347529
 30
0.0
 10
827.508726342477
 20
1454.208575550863
 30
0.0
 11
827.5435780106321
 21
1454.70728272218
 31
0.0
 11
827.5270122827859
 21
1454.536330752274
 31
0.0
 11
827.5153477374358
 21
1454.354659997028
 31
0.0
 11
827.5113797712879
 21
1454.271359138632
 31
0.0
 11
827.508726342477
 21
1454.208575550863
 31
0.0
  0
SPLINE
  5
25F
330
5D
100
AcDbEntity
  8
0
  6
Continuous
 62
     3
100
AcDbSpline
210
0.0
220
0.0
230
1.0
 70
    24
 71
     3
 72
    15
 73
    11
 74
     9
 42
0.0000000001
 43
0.0000000001
 44
0.00000001
 40
0.0
 40
0.0
 40
0.0
 40
0.0
 40
0.4771293379302309
 40
0.9542586758604619
 40
1.886870113910456
 40
3.094677451607458
 40
5.768694215086436
 40
8.990624934205243
 40
9.86629848682582
 40
10.76197751551169
 40
10.76197751551169
 40
10.76197751551169
 40
10.76197751551169
 10
818.0000001392583
 20
1472.000000404938
 30
0.0
 10
818.1431642684781
 20
1471.930727439186
 30
0.0
 10
818.4294925269179
 20
1471.792181507683
 30
0.0
 10
818.9956537233353
 20
1471.518232541672
 30
0.0
 10
819.7810571068619
 20
1471.138198646441
 30
0.0
 10
821.2256433371841
 20
1470.439205309178
 30
0.0
 10
823.3571468775976
 20
1469.407832628303
 30
0.0
 10
825.3889926515831
 20
1468.424681447364
 30
0.0
 10
826.8872427041878
 20
1467.699721744488
 30
0.0
 10
827.4187425087148
 20
1467.442544419716
 30
0.0
 10
827.6874937633718
 20
1467.312503490044
 30
0.0
 11
818.0000001392583
 21
1472.000000404938
 31
0.0
 11
818.4294925269178
 21
1471.792181507683
 31
0.0
 11
818.8589849145773
 21
1471.584362610428
 31
0.0
 11
819.6984837285196
 21
1471.178153506922
 31
0.0
 11
820.7857026774749
 21
1470.652079821943
 31
0.0
 11
823.1927436055526
 21
1469.487382598659
 31
0.0
 11
826.0929943497902
 21
1468.084035464358
 31
0.0
 11
826.8812399994013
 21
1467.702626279062
 31
0.0
 11
827.6874937633718
 21
1467.312503490044
 31
0.0
  0
SPLINE
  5
260
330
5D
100
AcDbEntity
  8
0
  6
Continuous
 62
     3
100
AcDbSpline
210
0.0
220
0.0
230
1.0
 70
     8
 71
     3
 72
    11
 73
     7
 74
     5
 42
0.0000000001
 43
0.0000000001
 44
0.00000001
 40
0.0
 40
0.0
 40
0.0
 40
0.0
 40
0.1188389541871617
 40
0.216829143084815
 40
0.2793427425532418
 40
0.3006369251104055
 40
0.3006369251104055
 40
0.3006369251104055
 40
0.3006369251104055
 10
827.6886278243919
 20
1420.700000334843
 30
0.0
 10
827.689503627359
 20
1420.739628974738
 30
0.0
 10
827.6911015849321
 20
1420.811933919601
 30
0.0
 10
827.6918275585833
 20
1420.904786685348
 30
0.0
 10
827.6917201946806
 20
1420.965898810297
 30
0.0
 10
827.6983225811639
 20
1420.993091195779
 30
0.0
 10
827.7000001392582
 20
1421.000000334843
 30
0.0
 11
827.6886278243919
 21
1420.700000334843
 31
0.0
 11
827.6909444976316
 21
1420.81881670601
 31
0.0
 11
827.6917289509433
 21
1420.916803754916
 31
0.0
 11
827.695396900232
 21
1420.979209654208
 31
0.0
 11
827.7000001392582
 21
1421.000000334843
 31
0.0
  0
SPLINE
  5
261
330
5D
100
AcDbEntity
  8
0
  6
Continuous
 62
     3
100
AcDbSpline
210
0.0
220
0.0
230
1.0
 70
     8
 71
     3
 72
    11
 73
     7
 74
     5
 42
0.0000000001
 43
0.0000000001
 44
0.00000001
 40
0.0
 40
0.0
 40
0.0
 40
0.0
 40
0.1282110645894337
 40
0.2278409159944811
 40
0.2963776794648543
 40
0.3213797323272925
 40
0.3213797323272925
 40
0.3213797323272925
 40
0.3213797323272925
 10
827.8146068808313
 20
1421.300000334843
 30
0.0
 10
827.7967737715815
 20
1421.261104525055
 30
0.0
 10
827.7650829658035
 20
1421.191983681556
 30
0.0
 10
827.7352035631197
 20
1421.097728439993
 30
0.0
 10
827.715429160563
 20
1421.036388501993
 30
0.0
 10
827.7032543519941
 20
1421.007675146786
 30
0.0
 10
827.7000001392582
 20
1421.000000334843
 30
0.0
 11
827.8146068808313
 21
1421.300000334843
 31
0.0
 11
827.7638690955231
 21
1421.182255890281
 31
0.0
 11
827.7319772208159
 21
1421.087868308372
 31
0.0
 11
827.7095770671049
 21
1421.023095466372
 31
0.0
 11
827.7000001392582
 21
1421.000000334843
 31
0.0
  0
SPLINE
  5
262
330
5D
100
AcDbEntity
  8
0
  6
Continuous
 62
     3
100
AcDbSpline
210
0.0
220
0.0
230
1.0
 70
     8
 71
     3
 72
     9
 73
     5
 74
     3
 42
0.0000000001
 43
0.0000000001
 44
0.00000001
 40
0.0
 40
0.0
 40
0.0
 40
0.0
 40
0.6000017836239169
 40
1.200010028692236
 40
1.200010028692236
 40
1.200010028692236
 40
1.200010028692236
 10
827.6886278243919
 20
1420.700000334843
 30
0.0
 10
827.6871968390776
 20
1420.500003908788
 30
0.0
 10
827.6843348530392
 20
1420.10000890291
 30
0.0
 10
827.6847825173276
 20
1419.700003908805
 30
0.0
 10
827.6850063506768
 20
1419.500000334841
 30
0.0
 11
827.6886278243919
 21
1420.700000334843
 31
0.0
 11
827.6851622721208
 21
1420.10000855965
 31
0.0
 11
827.6850063506768
 21
1419.500000334841
 31
0.0
  0
SPLINE
  5
263
330
5D
100
AcDbEntity
  8
0
  6
Continuous
 62
     3
100
AcDbSpline
210
0.0
220
0.0
230
1.0
 70
    24
 71
     3
 72
     9
 73
     5
 74
     3
 42
0.0000000001
 43
0.0000000001
 44
0.00000001
 40
0.0
 40
0.0
 40
0.0
 40
0.0
 40
0.1552418286522652
 40
0.3113723148663894
 40
0.3113723148663894
 40
0.3113723148663894
 40
0.3113723148663894
 10
827.6886278243919
 20
1420.700000334843
 30
0.0
 10
827.7403751006093
 20
1420.700000334843
 30
0.0
 10
827.8441658722315
 20
1420.700000334843
 30
0.0
 10
827.9479566438536
 20
1420.700000334843
 30
0.0
 10
828.0000001392583
 20
1420.700000334843
 30
0.0
 11
827.6886278243919
 21
1420.700000334843
 31
0.0
 11
827.8438696530442
 21
1420.700000334843
 31
0.0
 11
828.0000001392583
 21
1420.700000334843
 31
0.0
  0
SPLINE
  5
264
330
5D
100
AcDbEntity
  8
0
  6
Continuous
 62
     3
100
AcDbSpline
210
0.0
220
0.0
230
1.0
 70
    24
 71
     3
 72
    22
 73
    18
 74
    16
 42
0.0000000001
 43
0.0000000001
 44
0.00000001
 40
0.0
 40
0.0
 40
0.0
 40
0.0
 40
0.063519476600618
 40
0.1270389532013496
 40
0.3231491486528739
 40
0.6066054336134812
 40
0.9753449218617334
 40
1.427304727175965
 40
1.960421963334625
 40
2.57263374411616
 40
3.403356299916254
 40
4.328073989383483
 40
5.339469204212719
 40
6.430224336098945
 40
7.593021776736919
 40
7.640780994898364
 40
7.688627685133611
 40
7.688627685133611
 40
7.688627685133611
 40
7.688627685133611
 10
820.0000001392583
 20
1420.700000334843
 30
0.0
 10
820.0211732981252
 20
1420.700000334843
 30
0.0
 10
820.0635196158591
 20
1420.700000334843
 30
0.0
 10
820.1712359987432
 20
1420.700000334843
 30
0.0
 10
820.3522646510812
 20
1420.700000334844
 30
0.0
 10
820.635033307301
 20
1420.700000334843
 30
0.0
 10
821.0030851668085
 20
1420.700000334843
 30
0.0
 10
821.4543573433824
 20
1420.700000334843
 30
0.0
 10
821.9867869508005
 20
1420.700000334843
 30
0.0
 10
822.6454708083809
 20
1420.700000334843
 30
0.0
 10
823.4346881503969
 20
1420.700000334843
 30
0.0
 10
824.3569666370959
 20
1420.700000334843
 30
0.0
 10
825.3659226491566
 20
1420.700000334844
 30
0.0
 10
826.4542385782754
 20
1420.700000334844
 30
0.0
 10
827.221342508501
 20
1420.70000033484
 30
0.0
 10
827.6408102915149
 20
1420.700000334843
 30
0.0
 10
827.6726789276468
 20
1420.700000334843
 30
0.0
 10
827.6886278243919
 20
1420.700000334843
 30
0.0
 11
820.0000001392583
 21
1420.700000334843
 31
0.0
 11
820.0635196158589
 21
1420.700000334843
 31
0.0
 11
820.1270390924597
 21
1420.700000334843
 31
0.0
 11
820.3231492879112
 21
1420.700000334843
 31
0.0
 11
820.6066055728718
 21
1420.700000334843
 31
0.0
 11
820.97534506112
 21
1420.700000334843
 31
0.0
 11
821.4273048664343
 21
1420.700000334843
 31
0.0
 11
821.9604221025929
 21
1420.700000334843
 31
0.0
 11
822.5726338833745
 21
1420.700000334843
 31
0.0
 11
823.4033564391746
 21
1420.700000334843
 31
0.0
 11
824.3280741286418
 21
1420.700000334843
 31
0.0
 11
825.339469343471
 21
1420.700000334843
 31
0.0
 11
826.4302244753572
 21
1420.700000334843
 31
0.0
 11
827.5930219159952
 21
1420.700000334843
 31
0.0
 11
827.6407811341567
 21
1420.700000334843
 31
0.0
 11
827.6886278243919
 21
1420.700000334843
 31
0.0
  0
ENDBLK
  5
5F
330
5D
100
AcDbEntity
  8
0
100
AcDbBlockEnd
  0
BLOCK
  5
61
330
60
100
AcDbEntity
  8
0
100
AcDbBlockBegin
  2
10994_Deckel_GV__5
 70
     0
 71
     0
 10
844.3500001392583
 20
1392.500000334843
 30
0.0
  3
10994_Deckel_GV__5
  1

  0
LINE
  5
265
330
60
100
AcDbEntity
  8
0
  6
Continuous
 62
     7
100
AcDbLine
 10
849.9599997232583
 20
1469.500000334843
 30
0.0
 11
849.9599997232583
 21
1483.000000334843
 31
0.0
  0
LINE
  5
266
330
60
100
AcDbEntity
  8
0
  6
Continuous
 62
     3
100
AcDbLine
 10
849.4599997232583
 20
1469.500000334843
 30
0.0
 11
849.9599997232583
 21
1469.500000334843
 31
0.0
  0
LINE
  5
267
330
60
100
AcDbEntity
  8
0
  6
Continuous
 62
     7
100
AcDbLine
 10
849.9599997232583
 20
1393.000000334843
 30
0.0
 11
849.9599997232583
 21
1406.500000334843
 31
0.0
  0
LINE
  5
268
330
60
100
AcDbEntity
  8
0
  6
Continuous
 62
     3
100
AcDbLine
 10
849.4599997232583
 20
1406.500000334843
 30
0.0
 11
849.9599997232583
 21
1406.500000334843
 31
0.0
  0
LINE
  5
269
330
60
100
AcDbEntity
  8
0
  6
Continuous
 62
     7
100
AcDbLine
 10
849.4599997232583
 20
1392.500000334843
 30
0.0
 11
845.0000001392583
 21
1392.500000334843
 31
0.0
  0
LINE
  5
26A
330
60
100
AcDbEntity
  8
0
  6
Continuous
 62
     3
100
AcDbLine
 10
849.4639997232583
 20
1475.200000334852
 30
0.0
 11
849.4599997232583
 21
1483.500000334843
 31
0.0
  0
LINE
  5
26B
330
60
100
AcDbEntity
  8
0
  6
Continuous
 62
     7
100
AcDbLine
 10
849.4599997232583
 20
1483.500000334843
 30
0.0
 11
845.0000001392583
 21
1483.500000334843
 31
0.0
  0
LINE
  5
26C
330
60
100
AcDbEntity
  8
0
  6
Continuous
 62
     3
100
AcDbLine
 10
849.4599997232583
 20
1469.500000334843
 30
0.0
 11
845.0000001392583
 21
1469.500000334843
 31
0.0
  0
LINE
  5
26D
330
60
100
AcDbEntity
  8
0
  6
Continuous
 62
     3
100
AcDbLine
 10
849.4639997232583
 20
1474.700636737886
 30
0.0
 11
849.4639997232583
 21
1474.803200334861
 31
0.0
  0
LINE
  5
26E
330
60
100
AcDbEntity
  8
0
  6
Continuous
 62
     3
100
AcDbLine
 10
849.4639997232583
 20
1474.378236737874
 30
0.0
 11
849.4639997232583
 21
1474.427836737884
 31
0.0
  0
LINE
  5
26F
330
60
100
AcDbEntity
  8
0
  6
Continuous
 62
     3
100
AcDbLine
 10
849.4639997232583
 20
1473.361436737883
 30
0.0
 11
849.4639997232583
 21
1473.435836737884
 31
0.0
  0
LINE
  5
270
330
60
100
AcDbEntity
  8
0
  6
Continuous
 62
     3
100
AcDbLine
 10
849.4639997232583
 20
1473.435836737884
 30
0.0
 11
849.4639997232583
 21
1473.485436737883
 31
0.0
  0
LINE
  5
271
330
60
100
AcDbEntity
  8
0
  6
Continuous
 62
     3
100
AcDbLine
 10
849.4639997232583
 20
1473.485436737883
 30
0.0
 11
849.4639997232583
 21
1473.783036737894
 31
0.0
  0
LINE
  5
272
330
60
100
AcDbEntity
  8
0
  6
Continuous
 62
     3
100
AcDbLine
 10
849.4639997232583
 20
1473.783036737894
 30
0.0
 11
849.4639997232583
 21
1473.832636737886
 31
0.0
  0
LINE
  5
273
330
60
100
AcDbEntity
  8
0
  6
Continuous
 62
     3
100
AcDbLine
 10
849.4639997232583
 20
1473.832636737886
 30
0.0
 11
849.4639997232583
 21
1473.907036737883
 31
0.0
  0
LINE
  5
274
330
60
100
AcDbEntity
  8
0
  6
Continuous
 62
     3
100
AcDbLine
 10
849.4639997232583
 20
1473.907036737883
 30
0.0
 11
849.4639997232583
 21
1474.031036737883
 31
0.0
  0
LINE
  5
275
330
60
100
AcDbEntity
  8
0
  6
Continuous
 62
     3
100
AcDbLine
 10
849.4639997232583
 20
1474.031036737883
 30
0.0
 11
849.4639997232583
 21
1474.179836737884
 31
0.0
  0
LINE
  5
276
330
60
100
AcDbEntity
  8
0
  6
Continuous
 62
     3
100
AcDbLine
 10
849.4639997232583
 20
1474.179836737884
 30
0.0
 11
849.4639997232583
 21
1474.303836737866
 31
0.0
  0
LINE
  5
277
330
60
100
AcDbEntity
  8
0
  6
Continuous
 62
     3
100
AcDbLine
 10
849.4639997232583
 20
1474.303836737866
 30
0.0
 11
849.4639997232583
 21
1474.378236737874
 31
0.0
  0
LINE
  5
278
330
60
100
AcDbEntity
  8
0
  6
Continuous
 62
     3
100
AcDbLine
 10
849.4639997232583
 20
1474.427836737884
 30
0.0
 11
849.4639997232583
 21
1474.700636737886
 31
0.0
  0
LINE
  5
279
330
60
100
AcDbEntity
  8
0
  6
Continuous
 62
     3
100
AcDbLine
 10
849.4639997232583
 20
1474.803200334861
 30
0.0
 11
849.4639997232583
 21
1475.200000334852
 31
0.0
  0
LINE
  5
27A
330
60
100
AcDbEntity
  8
0
  6
Continuous
 62
     3
100
AcDbLine
 10
849.4639997232583
 20
1470.339200334832
 30
0.0
 11
849.4639997232583
 21
1470.636800334853
 31
0.0
  0
LINE
  5
27B
330
60
100
AcDbEntity
  8
0
  6
Continuous
 62
     3
100
AcDbLine
 10
849.4639997232583
 20
1473.237436737884
 30
0.0
 11
849.4639997232583
 21
1473.361436737883
 31
0.0
  0
LINE
  5
27C
330
60
100
AcDbEntity
  8
0
  6
Continuous
 62
     3
100
AcDbLine
 10
849.4639997232583
 20
1473.088636737893
 30
0.0
 11
849.4639997232583
 21
1473.237436737884
 31
0.0
  0
LINE
  5
27D
330
60
100
AcDbEntity
  8
0
  6
Continuous
 62
     3
100
AcDbLine
 10
849.4639997232583
 20
1472.716636737886
 30
0.0
 11
849.4639997232583
 21
1472.890236737874
 31
0.0
  0
LINE
  5
27E
330
60
100
AcDbEntity
  8
0
  6
Continuous
 62
     3
100
AcDbLine
 10
849.4639997232583
 20
1472.121436737887
 30
0.0
 11
849.4639997232583
 21
1472.716636737886
 31
0.0
  0
LINE
  5
27F
330
60
100
AcDbEntity
  8
0
  6
Continuous
 62
     3
100
AcDbLine
 10
849.4639997232583
 20
1470.636800334853
 30
0.0
 11
849.4639997232583
 21
1470.736000334852
 31
0.0
  0
LINE
  5
280
330
60
100
AcDbEntity
  8
0
  6
Continuous
 62
     3
100
AcDbLine
 10
849.4639997232583
 20
1470.736000334852
 30
0.0
 11
849.4639997232583
 21
1472.121436737887
 31
0.0
  0
LINE
  5
281
330
60
100
AcDbEntity
  8
0
  6
Continuous
 62
     3
100
AcDbLine
 10
849.4599997232583
 20
1469.500000334843
 30
0.0
 11
849.4639997232583
 21
1470.339200334832
 31
0.0
  0
LINE
  5
282
330
60
100
AcDbEntity
  8
0
  6
Continuous
 62
     3
100
AcDbLine
 10
849.4639997232583
 20
1472.890236737874
 30
0.0
 11
849.4639997232583
 21
1473.088636737893
 31
0.0
  0
LINE
  5
283
330
60
100
AcDbEntity
  8
0
  6
Continuous
 62
     3
100
AcDbLine
 10
849.4599997232583
 20
1406.500000334843
 30
0.0
 11
849.4599997232583
 21
1469.500000334843
 31
0.0
  0
LINE
  5
284
330
60
100
AcDbEntity
  8
0
  6
Continuous
 62
     3
100
AcDbLine
 10
849.4599997232583
 20
1406.500000334843
 30
0.0
 11
845.0000001392583
 21
1406.500000334843
 31
0.0
  0
LINE
  5
285
330
60
100
AcDbEntity
  8
0
  6
Continuous
 62
     7
100
AcDbLine
 10
845.0000001392583
 20
1394.500000334843
 30
0.0
 11
845.0000001392583
 21
1394.799335911934
 31
0.0
  0
LINE
  5
286
330
60
100
AcDbEntity
  8
0
  6
Continuous
 62
     7
100
AcDbLine
 10
845.0000001392583
 20
1394.799335911934
 30
0.0
 11
845.0000001392583
 21
1395.000000334843
 31
0.0
  0
LINE
  5
287
330
60
100
AcDbEntity
  8
0
  6
Continuous
 62
     7
100
AcDbLine
 10
845.0000001392583
 20
1394.050000334843
 30
0.0
 11
845.0000001392583
 21
1394.500000334843
 31
0.0
  0
LINE
  5
288
330
60
100
AcDbEntity
  8
0
  6
Continuous
 62
     3
100
AcDbLine
 10
849.4599997232583
 20
1392.500000334843
 30
0.0
 11
849.4599997232583
 21
1406.500000334843
 31
0.0
  0
LINE
  5
289
330
60
100
AcDbEntity
  8
0
  6
Continuous
 62
     7
100
AcDbLine
 10
849.9599997232583
 20
1406.500000334843
 30
0.0
 11
849.9599997232583
 21
1469.500000334843
 31
0.0
  0
LINE
  5
28A
330
60
100
AcDbEntity
  8
0
  6
Continuous
 62
     7
100
AcDbLine
 10
845.0000001392583
 20
1482.775000334843
 30
0.0
 11
845.0000001392583
 21
1481.950000334843
 31
0.0
  0
LINE
  5
28B
330
60
100
AcDbEntity
  8
0
  6
Continuous
 62
     7
100
AcDbLine
 10
845.0000001392583
 20
1483.500000334843
 30
0.0
 11
845.0000001392583
 21
1482.775000334843
 31
0.0
  0
LINE
  5
28C
330
60
100
AcDbEntity
  8
0
  6
Continuous
 62
     7
100
AcDbLine
 10
845.0000001392583
 20
1469.596000334843
 30
0.0
 11
845.0000001392583
 21
1469.500000334843
 31
0.0
  0
LINE
  5
28D
330
60
100
AcDbEntity
  8
0
  6
Continuous
 62
     7
100
AcDbLine
 10
845.0000001392583
 20
1481.950000334843
 30
0.0
 11
845.0000001392583
 21
1481.500000334843
 31
0.0
  0
LINE
  5
28E
330
60
100
AcDbEntity
  8
0
  6
Continuous
 62
     7
100
AcDbLine
 10
845.0000001392583
 20
1481.500000334843
 30
0.0
 11
845.0000001392583
 21
1478.581443423235
 31
0.0
  0
LINE
  5
28F
330
60
100
AcDbEntity
  8
0
  6
Continuous
 62
     7
100
AcDbLine
 10
845.0000001392583
 20
1478.581443423235
 30
0.0
 11
845.0000001392583
 21
1469.596000334843
 31
0.0
  0
LINE
  5
290
330
60
100
AcDbEntity
  8
0
  6
Continuous
 62
     3
100
AcDbLine
 10
844.3500001392583
 20
1469.500000334843
 30
0.0
 11
844.4500001392582
 21
1469.500000334843
 31
0.0
  0
LINE
  5
291
330
60
100
AcDbEntity
  8
0
  6
Continuous
 62
     7
100
AcDbLine
 10
845.0000001392583
 20
1467.500000334843
 30
0.0
 11
845.0000001392583
 21
1467.050000334843
 31
0.0
  0
LINE
  5
292
330
60
100
AcDbEntity
  8
0
  6
Continuous
 62
     7
100
AcDbLine
 10
845.0000001392583
 20
1467.500000334843
 30
0.0
 11
845.0000001392583
 21
1469.500000334843
 31
0.0
  0
LINE
  5
293
330
60
100
AcDbEntity
  8
0
  6
Continuous
 62
     7
100
AcDbLine
 10
845.0000001392583
 20
1467.050000334843
 30
0.0
 11
845.0000001392583
 21
1466.775000334843
 31
0.0
  0
LINE
  5
294
330
60
100
AcDbEntity
  8
0
  6
Continuous
 62
     7
100
AcDbLine
 10
845.0000001392583
 20
1466.775000334843
 30
0.0
 11
845.0000001392583
 21
1465.950000334843
 31
0.0
  0
LINE
  5
295
330
60
100
AcDbEntity
  8
0
  6
Continuous
 62
     7
100
AcDbLine
 10
845.0000001392583
 20
1465.950000334843
 30
0.0
 11
845.0000001392583
 21
1465.500000334843
 31
0.0
  0
LINE
  5
296
330
60
100
AcDbEntity
  8
0
  6
Continuous
 62
     7
100
AcDbLine
 10
845.0000001392583
 20
1465.500000334843
 30
0.0
 11
845.0000001392583
 21
1456.588000334843
 31
0.0
  0
LINE
  5
297
330
60
100
AcDbEntity
  8
0
  6
Continuous
 62
     3
100
AcDbLine
 10
844.4500001392582
 20
1469.500000334843
 30
0.0
 11
845.0000001392583
 21
1469.500000334843
 31
0.0
  0
LINE
  5
298
330
60
100
AcDbEntity
  8
0
  6
Continuous
 62
     7
100
AcDbLine
 10
845.0000001392583
 20
1456.588000334843
 30
0.0
 11
845.0000001392583
 21
1456.500000334843
 31
0.0
  0
LINE
  5
299
330
60
100
AcDbEntity
  8
0
  6
Continuous
 62
     7
100
AcDbLine
 10
845.0000001392583
 20
1456.500000334843
 30
0.0
 11
845.0000001392583
 21
1441.26184716481
 31
0.0
  0
LINE
  5
29A
330
60
100
AcDbEntity
  8
0
  6
Continuous
 62
     7
100
AcDbLine
 10
845.0000001392583
 20
1429.387505077772
 30
0.0
 11
845.0000001392583
 21
1426.650000334843
 31
0.0
  0
LINE
  5
29B
330
60
100
AcDbEntity
  8
0
  6
Continuous
 62
     7
100
AcDbLine
 10
845.0000001392583
 20
1441.26184716481
 30
0.0
 11
845.0000001392583
 21
1429.387505077772
 31
0.0
  0
LINE
  5
29C
330
60
100
AcDbEntity
  8
0
  6
Continuous
 62
     7
100
AcDbLine
 10
845.0000001392583
 20
1392.500000334843
 30
0.0
 11
845.0000001392583
 21
1393.225000334843
 31
0.0
  0
LINE
  5
29D
330
60
100
AcDbEntity
  8
0
  6
Continuous
 62
     7
100
AcDbLine
 10
845.0000001392583
 20
1393.225000334843
 30
0.0
 11
845.0000001392583
 21
1394.050000334843
 31
0.0
  0
LINE
  5
29E
330
60
100
AcDbEntity
  8
0
  6
Continuous
 62
     7
100
AcDbLine
 10
845.0000001392583
 20
1397.418557246451
 30
0.0
 11
845.0000001392583
 21
1395.000000334843
 31
0.0
  0
LINE
  5
29F
330
60
100
AcDbEntity
  8
0
  6
Continuous
 62
     7
100
AcDbLine
 10
845.0000001392583
 20
1406.404000334843
 30
0.0
 11
845.0000001392583
 21
1397.418557246451
 31
0.0
  0
LINE
  5
2A0
330
60
100
AcDbEntity
  8
0
  6
Continuous
 62
     7
100
AcDbLine
 10
845.0000001392583
 20
1426.650000334843
 30
0.0
 11
845.0000001392583
 21
1424.150000334843
 31
0.0
  0
LINE
  5
2A1
330
60
100
AcDbEntity
  8
0
  6
Continuous
 62
     7
100
AcDbLine
 10
845.0000001392583
 20
1406.500000334843
 30
0.0
 11
845.0000001392583
 21
1406.404000334843
 31
0.0
  0
LINE
  5
2A2
330
60
100
AcDbEntity
  8
0
  6
Continuous
 62
     7
100
AcDbLine
 10
845.0000001392583
 20
1419.061442463235
 30
0.0
 11
845.0000001392583
 21
1412.800000334843
 31
0.0
  0
LINE
  5
2A3
330
60
100
AcDbEntity
  8
0
  6
Continuous
 62
     3
100
AcDbLine
 10
844.4500001392582
 20
1406.500000334843
 30
0.0
 11
844.3500001392583
 21
1406.500000334843
 31
0.0
  0
LINE
  5
2A4
330
60
100
AcDbEntity
  8
0
  6
Continuous
 62
     3
100
AcDbLine
 10
845.0000001392583
 20
1406.500000334843
 30
0.0
 11
844.4500001392582
 21
1406.500000334843
 31
0.0
  0
LINE
  5
2A5
330
60
100
AcDbEntity
  8
0
  6
Continuous
 62
     7
100
AcDbLine
 10
845.0000001392583
 20
1412.800000334843
 30
0.0
 11
845.0000001392583
 21
1412.500000334843
 31
0.0
  0
LINE
  5
2A6
330
60
100
AcDbEntity
  8
0
  6
Continuous
 62
     7
100
AcDbLine
 10
845.0000001392583
 20
1412.500000334843
 30
0.0
 11
845.0000001392583
 21
1406.500000334843
 31
0.0
  0
LINE
  5
2A7
330
60
100
AcDbEntity
  8
0
  6
Continuous
 62
     7
100
AcDbLine
 10
845.0000001392583
 20
1424.150000334843
 30
0.0
 11
845.0000001392583
 21
1423.650000334843
 31
0.0
  0
LINE
  5
2A8
330
60
100
AcDbEntity
  8
0
  6
Continuous
 62
     7
100
AcDbLine
 10
845.0000001392583
 20
1423.650000334843
 30
0.0
 11
845.0000001392583
 21
1422.650000334843
 31
0.0
  0
LINE
  5
2A9
330
60
100
AcDbEntity
  8
0
  6
Continuous
 62
     7
100
AcDbLine
 10
845.0000001392583
 20
1422.650000334843
 30
0.0
 11
845.0000001392583
 21
1419.061442463235
 31
0.0
  0
ARC
  5
2AA
330
60
100
AcDbEntity
  8
0
  6
Continuous
 62
     7
100
AcDbCircle
 10
849.4599997232583
 20
1483.000000334843
 30
0.0
 40
0.5
100
AcDbArc
 50
0.0
 51
90.0
  0
ARC
  5
2AB
330
60
100
AcDbEntity
  8
0
  6
Continuous
 62
     7
100
AcDbCircle
 10
849.4599997232583
 20
1393.000000334843
 30
0.0
 40
0.5
100
AcDbArc
 50
-90.0
 51
0.0
  0
ENDBLK
  5
62
330
60
100
AcDbEntity
  8
0
100
AcDbBlockEnd
  0
BLOCK
  5
67
330
63
100
AcDbEntity
  8
0
100
AcDbBlockBegin
  2
Bgr_Geruchsverschluss_0138_3E__6
 70
     0
 71
     0
 10
815.0000001392582
 20
1392.500000334843
 30
0.0
  3
Bgr_Geruchsverschluss_0138_3E__6
  1

  0
INSERT
  5
64
330
63
100
AcDbEntity
  8
0
100
AcDbBlockReference
  2
Bgr_01097D
 10
816.0000001392582
 20
1395.500000334843
 30
0.0
  0
INSERT
  5
65
330
63
100
AcDbEntity
  8
0
100
AcDbBlockReference
  2
10954_Einsatz_GV__4
 10
815.0000001392582
 20
1392.500000334843
 30
0.0
  0
INSERT
  5
66
330
63
100
AcDbEntity
  8
0
100
AcDbBlockReference
  2
10994_Deckel_GV__5
 10
844.3500001392583
 20
1392.500000334843
 30
0.0
  0
ENDBLK
  5
68
330
63
100
AcDbEntity
  8
0
100
AcDbBlockEnd
  0
BLOCK
  5
6B
330
69
100
AcDbEntity
  8
0
100
AcDbBlockBegin
  2
SA_links1
 70
     0
 71
     0
 10
832.4800000987063
 20
1437.999999993812
 30
0.0
  3
SA_links1
  1

  0
INSERT
  5
6A
330
69
100
AcDbEntity
  8
0
100
AcDbBlockReference
  2
Bgr_Geruchsverschluss_0138_3E__6
 10
815.0000001392582
 20
1392.500000334843
 30
0.0
  0
ENDBLK
  5
6C
330
69
100
AcDbEntity
  8
0
100
AcDbBlockEnd
  0
BLOCK
  5
70
330
6D
100
AcDbEntity
  8
0
100
AcDbBlockBegin
  2
1
 70
     0
 71
     0
 10
0.0
 20
0.0
 30
0.0
  3
1
  1

  0
INSERT
  5
6E
330
6D
100
AcDbEntity
  8
0
100
AcDbBlockReference
  2
Vordans1
 10
753.999999992217
 20
1437.999999993812
 30
0.0
  0
INSERT
  5
6F
330
6D
100
AcDbEntity
  8
0
100
AcDbBlockReference
  2
SA_links1
 10
832.4800000987063
 20
1437.999999993812
 30
0.0
  0
ENDBLK
  5
71
330
6D
100
AcDbEntity
  8
0
100
AcDbBlockEnd
  0
ENDSEC
  0
SECTION
  2
ENTITIES
  0
INSERT
  5
72
330
1F
100
AcDbEntity
  8
1
100
AcDbBlockReference
  2
1
 10
0.0
 20
0.0
 30
0.0
  0
ENDSEC
  0
SECTION
  2
OBJECTS
  0
DICTIONARY
  5
C
330
0
100
AcDbDictionary
281
     1
  3
ACAD_GROUP
350
D
  3
ACAD_LAYOUT
350
1A
  3
ACAD_MLINESTYLE
350
17
  3
ACAD_PLOTSETTINGS
350
19
  3
ACAD_PLOTSTYLENAME
350
E
  3
ACAD_TABLESTYLE
350
2AC
  3
ACAD_VISUALSTYLE
350
2A
  0
DICTIONARY
  5
D
102
{ACAD_REACTORS
330
C
102
}
330
C
100
AcDbDictionary
281
     1
  0
DICTIONARY
  5
1A
102
{ACAD_REACTORS
330
C
102
}
330
C
100
AcDbDictionary
281
     1
  3
Layout1
350
1E
  3
Layout2
350
26
  3
Model
350
22
  0
DICTIONARY
  5
17
102
{ACAD_REACTORS
330
C
102
}
330
C
100
AcDbDictionary
281
     1
  3
Standard
350
18
  0
DICTIONARY
  5
19
102
{ACAD_REACTORS
330
C
102
}
330
C
100
AcDbDictionary
281
     1
  0
ACDBDICTIONARYWDFLT
  5
E
102
{ACAD_REACTORS
330
C
102
}
330
C
100
AcDbDictionary
281
     1
  3
Normal
350
F
100
AcDbDictionaryWithDefault
340
F
  0
DICTIONARY
  5
2AC
102
{ACAD_REACTORS
330
C
102
}
330
C
100
AcDbDictionary
281
     1
  0
DICTIONARY
  5
2A
102
{ACAD_REACTORS
330
C
102
}
330
C
100
AcDbDictionary
281
     1
  3
2dWireframe
350
2F
  3
3D Hidden
350
31
  3
3dWireframe
350
30
  3
Basic
350
32
  3
Brighten
350
36
  3
ColorChange
350
3A
  3
Conceptual
350
34
  3
Dim
350
35
  3
Facepattern
350
39
  3
Flat
350
2B
  3
FlatWithEdges
350
2C
  3
Gouraud
350
2D
  3
GouraudWithEdges
350
2E
  3
Linepattern
350
38
  3
Realistic
350
33
  3
Thicken
350
37
  0
LAYOUT
  5
1E
102
{ACAD_REACTORS
330
1A
102
}
330
1A
100
AcDbPlotSettings
  1

  2
none_device
  4

  6

 40
0.0
 41
0.0
 42
0.0
 43
0.0
 44
0.0
 45
0.0
 46
0.0
 47
0.0
 48
0.0
 49
0.0
140
0.0
141
0.0
142
1.0
143
1.0
 70
   688
 72
     0
 73
     0
 74
     5
  7

 75
    16
147
1.0
148
0.0
149
0.0
100
AcDbLayout
  1
Layout1
 70
     1
 71
     1
 10
0.0
 20
0.0
 11
12.0
 21
9.0
 12
0.0
 22
0.0
 32
0.0
 14
1.00000000000000E+20
 24
1.00000000000000E+20
 34
1.00000000000000E+20
 15
-1.00000000000000E+20
 25
-1.00000000000000E+20
 35
-1.00000000000000E+20
146
0.0
 13
0.0
 23
0.0
 33
0.0
 16
1.0
 26
0.0
 36
0.0
 17
0.0
 27
1.0
 37
0.0
 76
     0
330
1B
  0
LAYOUT
  5
26
102
{ACAD_REACTORS
330
1A
102
}
330
1A
100
AcDbPlotSettings
  1

  2
none_device
  4

  6

 40
0.0
 41
0.0
 42
0.0
 43
0.0
 44
0.0
 45
0.0
 46
0.0
 47
0.0
 48
0.0
 49
0.0
140
0.0
141
0.0
142
1.0
143
1.0
 70
   688
 72
     0
 73
     0
 74
     5
  7

 75
    16
147
1.0
148
0.0
149
0.0
100
AcDbLayout
  1
Layout2
 70
     1
 71
     2
 10
0.0
 20
0.0
 11
0.0
 21
0.0
 12
0.0
 22
0.0
 32
0.0
 14
0.0
 24
0.0
 34
0.0
 15
0.0
 25
0.0
 35
0.0
146
0.0
 13
0.0
 23
0.0
 33
0.0
 16
1.0
 26
0.0
 36
0.0
 17
0.0
 27
1.0
 37
0.0
 76
     0
330
23
  0
LAYOUT
  5
22
102
{ACAD_REACTORS
330
1A
102
}
330
1A
100
AcDbPlotSettings
  1

  2
none_device
  4

  6

 40
0.0
 41
0.0
 42
0.0
 43
0.0
 44
0.0
 45
0.0
 46
0.0
 47
0.0
 48
0.0
 49
0.0
140
0.0
141
0.0
142
1.0
143
1.0
 70
  1712
 72
     0
 73
     0
 74
     0
  7

 75
     0
147
1.0
148
0.0
149
0.0
100
AcDbLayout
  1
Model
 70
     1
 71
     0
 10
0.0
 20
0.0
 11
12.0
 21
9.0
 12
0.0
 22
0.0
 32
0.0
 14
710.607325310563
 24
1389.81648236148
 34
0.0
 15
851.929861264672
 25
1485.52347011679
 35
0.0
146
0.0
 13
0.0
 23
0.0
 33
0.0
 16
1.0
 26
0.0
 36
0.0
 17
0.0
 27
1.0
 37
0.0
 76
     0
330
1F
331
29
  0
MLINESTYLE
  5
18
102
{ACAD_REACTORS
330
17
102
}
330
17
100
AcDbMlineStyle
  2
Standard
 70
     0
  3

 62
   256
 51
90.0
 52
90.0
 71
     2
 49
0.5
 62
   256
  6
BYLAYER
 49
-0.5
 62
   256
  6
BYLAYER
  0
ACDBPLACEHOLDER
  5
F
102
{ACAD_REACTORS
330
E
102
}
330
E
  0
VISUALSTYLE
  5
2F
102
{ACAD_REACTORS
330
2A
102
}
330
2A
100
AcDbVisualStyle
  2
2dWireframe
 70
     4
 71
     0
 72
     2
 73
     0
 90
        0
 40
-0.6
 41
-30.0
 62
     5
 63
     7
 74
     1
 91
        4
 64
     7
 65
   257
 75
     1
175
     1
 42
1.0
 92
        0
 66
   257
 43
1.0
 76
     1
 77
     6
 78
     2
 67
     7
 79
     5
170
     0
171
     0
290
     0
174
     0
 93
        1
 44
0.0
173
     0
291
     0
 45
0.0
1001
ACAD
1000
AcDbSavedByObjectVersion
1070
     0
  0
VISUALSTYLE
  5
31
102
{ACAD_REACTORS
330
2A
102
}
330
2A
100
AcDbVisualStyle
  2
3D Hidden
 70
     6
 71
     1
 72
     2
 73
     2
 90
        0
 40
-0.6
 41
-30.0
 62
     5
 63
     7
 74
     2
 91
        2
 64
     7
 65
   257
 75
     2
175
     1
 42
40.0
 92
        0
 66
   257
 43
1.0
 76
     1
 77
     6
 78
     2
 67
     7
 79
     3
170
     0
171
     0
290
     0
174
     0
 93
        1
 44
0.0
173
     0
291
     0
 45
0.0
1001
ACAD
1000
AcDbSavedByObjectVersion
1070
     0
  0
VISUALSTYLE
  5
30
102
{ACAD_REACTORS
330
2A
102
}
330
2A
100
AcDbVisualStyle
  2
3dWireframe
 70
     5
 71
     0
 72
     2
 73
     0
 90
        0
 40
-0.6
 41
-30.0
 62
     5
 63
     7
 74
     1
 91
        4
 64
     7
 65
   257
 75
     1
175
     1
 42
1.0
 92
        0
 66
   257
 43
1.0
 76
     1
 77
     6
 78
     2
 67
     7
 79
     5
170
     0
171
     0
290
     0
174
     0
 93
        1
 44
0.0
173
     0
291
     0
 45
0.0
1001
ACAD
1000
AcDbSavedByObjectVersion
1070
     0
  0
VISUALSTYLE
  5
32
102
{ACAD_REACTORS
330
2A
102
}
330
2A
100
AcDbVisualStyle
  2
Basic
 70
     7
 71
     1
 72
     0
 73
     1
 90
        0
 40
-0.6
 41
-30.0
 62
     5
 63
     7
 74
     0
 91
        4
 64
     7
 65
   257
 75
     1
175
     1
 42
1.0
 92
        8
 66
     7
 43
1.0
 76
     1
 77
     6
 78
     2
 67
     7
 79
     5
170
     0
171
     0
290
     0
174
     0
 93
        1
 44
0.0
173
     0
291
     1
 45
0.0
1001
ACAD
1000
AcDbSavedByObjectVersion
1070
     0
  0
VISUALSTYLE
  5
36
102
{ACAD_REACTORS
330
2A
102
}
330
2A
100
AcDbVisualStyle
  2
Brighten
 70
    12
 71
     2
 72
     2
 73
     0
 90
        0
 40
-0.6
 41
-30.0
 62
     5
 63
     7
 74
     1
 91
        4
 64
     7
 65
   257
 75
     1
175
     1
 42
1.0
 92
        8
 66
     7
 43
1.0
 76
     1
 77
     6
 78
     2
 67
     7
 79
     5
170
     0
171
     0
290
     0
174
     0
 93
        1
 44
50.0
173
     0
291
     1
 45
0.0
1001
ACAD
1000
AcDbSavedByObjectVersion
1070
     0
  0
VISUALSTYLE
  5
3A
102
{ACAD_REACTORS
330
2A
102
}
330
2A
100
AcDbVisualStyle
  2
ColorChange
 70
    16
 71
     2
 72
     2
 73
     3
 90
        0
 40
-0.6
 41
-30.0
 62
     5
 63
     8
 74
     1
 91
        4
 64
     7
 65
   257
 75
     1
175
     1
 42
1.0
 92
        8
 66
     8
 43
1.0
 76
     1
 77
     6
 78
     2
 67
     7
 79
     5
170
     0
171
     0
290
     0
174
     0
 93
        1
 44
0.0
173
     0
291
     1
 45
0.0
1001
ACAD
1000
AcDbSavedByObjectVersion
1070
     0
  0
VISUALSTYLE
  5
34
102
{ACAD_REACTORS
330
2A
102
}
330
2A
100
AcDbVisualStyle
  2
Conceptual
 70
     9
 71
     3
 72
     2
 73
     0
 90
        0
 40
-0.6
 41
-30.0
 62
     5
 63
     7
 74
     2
 91
        2
 64
     7
 65
   257
 75
     1
175
     1
 42
40.0
 92
        8
 66
     7
 43
1.0
 76
     1
 77
     6
 78
     2
 67
     7
 79
     3
170
     0
171
     0
290
     0
174
     0
 93
        1
 44
0.0
173
     0
291
     0
 45
0.0
1001
ACAD
1000
AcDbSavedByObjectVersion
1070
     0
  0
VISUALSTYLE
  5
35
102
{ACAD_REACTORS
330
2A
102
}
330
2A
100
AcDbVisualStyle
  2
Dim
 70
    11
 71
     2
 72
     2
 73
     0
 90
        0
 40
-0.6
 41
-30.0
 62
     5
 63
     7
 74
     1
 91
        4
 64
     7
 65
   257
 75
     1
175
     1
 42
1.0
 92
        8
 66
     7
 43
1.0
 76
     1
 77
     6
 78
     2
 67
     7
 79
     5
170
     0
171
     0
290
     0
174
     0
 93
        1
 44
-50.0
173
     0
291
     1
 45
0.0
1001
ACAD
1000
AcDbSavedByObjectVersion
1070
     0
  0
VISUALSTYLE
  5
39
102
{ACAD_REACTORS
330
2A
102
}
330
2A
100
AcDbVisualStyle
  2
Facepattern
 70
    15
 71
     2
 72
     2
 73
     0
 90
        0
 40
-0.6
 41
-30.0
 62
     5
 63
     7
 74
     1
 91
        4
 64
     7
 65
   257
 75
     1
175
     1
 42
1.0
 92
        8
 66
     7
 43
1.0
 76
     1
 77
     6
 78
     2
 67
     7
 79
     5
170
     0
171
     0
290
     0
174
     0
 93
        1
 44
0.0
173
     0
291
     1
 45
0.0
1001
ACAD
1000
AcDbSavedByObjectVersion
1070
     0
  0
VISUALSTYLE
  5
2B
102
{ACAD_REACTORS
330
2A
102
}
330
2A
100
AcDbVisualStyle
  2
Flat
 70
     0
 71
     2
 72
     1
 73
     1
 90
        2
 40
-0.6
 41
30.0
 62
     5
 63
     7
 74
     0
 91
        4
 64
     7
 65
   257
 75
     1
175
     1
 42
1.0
 92
        8
 66
     7
 43
1.0
 76
     1
 77
     6
 78
     2
 67
     7
 79
     5
170
     0
171
     0
290
     0
174
     0
 93
       13
 44
0.0
173
     0
291
     1
 45
0.0
1001
ACAD
1000
AcDbSavedByObjectVersion
1070
     0
  0
VISUALSTYLE
  5
2C
102
{ACAD_REACTORS
330
2A
102
}
330
2A
100
AcDbVisualStyle
  2
FlatWithEdges
 70
     1
 71
     2
 72
     1
 73
     1
 90
        2
 40
-0.6
 41
30.0
 62
     5
 63
     7
 74
     1
 91
        4
 64
     7
 65
   257
 75
     1
175
     1
 42
1.0
 92
        0
 66
   257
 43
1.0
 76
     1
 77
     6
 78
     2
 67
     7
 79
     5
170
     0
171
     0
290
     0
174
     0
 93
       13
 44
0.0
173
     0
291
     1
 45
0.0
1001
ACAD
1000
AcDbSavedByObjectVersion
1070
     0
  0
VISUALSTYLE
  5
2D
102
{ACAD_REACTORS
330
2A
102
}
330
2A
100
AcDbVisualStyle
  2
Gouraud
 70
     2
 71
     2
 72
     2
 73
     1
 90
        2
 40
-0.6
 41
30.0
 62
     5
 63
     7
 74
     0
 91
        4
 64
     7
 65
   257
 75
     1
175
     1
 42
1.0
 92
        0
 66
     7
 43
1.0
 76
     1
 77
     6
 78
     2
 67
     7
 79
     5
170
     0
171
     0
290
     0
174
     0
 93
       13
 44
0.0
173
     0
291
     1
 45
0.0
1001
ACAD
1000
AcDbSavedByObjectVersion
1070
     0
  0
VISUALSTYLE
  5
2E
102
{ACAD_REACTORS
330
2A
102
}
330
2A
100
AcDbVisualStyle
  2
GouraudWithEdges
 70
     3
 71
     2
 72
     2
 73
     1
 90
        2
 40
-0.6
 41
30.0
 62
     5
 63
     7
 74
     1
 91
        4
 64
     7
 65
   257
 75
     1
175
     1
 42
1.0
 92
        0
 66
   257
 43
1.0
 76
     1
 77
     6
 78
     2
 67
     7
 79
     5
170
     0
171
     0
290
     0
174
     0
 93
       13
 44
0.0
173
     0
291
     1
 45
0.0
1001
ACAD
1000
AcDbSavedByObjectVersion
1070
     0
  0
VISUALSTYLE
  5
38
102
{ACAD_REACTORS
330
2A
102
}
330
2A
100
AcDbVisualStyle
  2
Linepattern
 70
    14
 71
     2
 72
     2
 73
     0
 90
        0
 40
-0.6
 41
-30.0
 62
     5
 63
     7
 74
     1
 91
        4
 64
     7
 65
   257
 75
     7
175
     7
 42
1.0
 92
        8
 66
     7
 43
1.0
 76
     1
 77
     6
 78
     2
 67
     7
 79
     5
170
     0
171
     0
290
     0
174
     0
 93
        1
 44
0.0
173
     0
291
     1
 45
0.0
1001
ACAD
1000
AcDbSavedByObjectVersion
1070
     0
  0
VISUALSTYLE
  5
33
102
{ACAD_REACTORS
330
2A
102
}
330
2A
100
AcDbVisualStyle
  2
Realistic
 70
     8
 71
     2
 72
     2
 73
     0
 90
        0
 40
-0.6
 41
-30.0
 62
     5
 63
     7
 74
     1
 91
        0
 64
     7
 65
   257
 75
     1
175
     1
 42
1.0
 92
        8
 66
     8
 43
1.0
 76
     1
 77
     6
 78
     2
 67
     7
 79
     5
170
     0
171
     0
290
     0
174
     0
 93
       13
 44
0.0
173
     0
291
     0
 45
0.0
1001
ACAD
1000
AcDbSavedByObjectVersion
1070
     0
  0
VISUALSTYLE
  5
37
102
{ACAD_REACTORS
330
2A
102
}
330
2A
100
AcDbVisualStyle
  2
Thicken
 70
    13
 71
     2
 72
     2
 73
     0
 90
        0
 40
-0.6
 41
-30.0
 62
     5
 63
     7
 74
     1
 91
        4
 64
     7
 65
   257
 75
     1
175
     1
 42
1.0
 92
       12
 66
     7
 43
1.0
 76
     1
 77
     6
 78
     2
 67
     7
 79
     5
170
     0
171
     0
290
     0
174
     0
 93
        1
 44
0.0
173
     0
291
     1
 45
0.0
1001
ACAD
1000
AcDbSavedByObjectVersion
1070
     0
  0
ENDSEC
  0
EOF
